>
 >
Keyboard Suite Vol 2 No 8 In G Hwv 441 - Courante

Keyboard Suite Vol 2 No 8 In G Hwv 441 - Courante Guitar Tabs

George Frederic Hande - Keyboard Suite Vol 2 No 8 In G Hwv 441 - Courante chords, tabs, tablatures, lyrics

Guitar lessons | Add/correct | Request | Top 50 tabs Artists:  A B C D E F G H I J K L M N O P Q R S T U V W X Y Z 0-9

Keyboard Suite Vol 2 No 8 In G Hwv 441 - Courante Guitar Tabs – George Frederic Hande

CD, Sheet music, Poster

Do you like Keyboard Suite Vol 2 No 8 In G Hwv 441 - Courante? Share with your friends now
Tabs
Keyboard Suite No 16, HWV 441, Courante - Handel (1685-1759)
(Suites de Pieces pour le Clavecin, Vol II, No 8)
1st version - by AHC, drop D tuning, in G, note lengths, ornaments
2nd version - by Thomas Schenken, normal tuning, in G
******************************************************************************

   Georg Friedrich Haendel  
   Suite for Harpsichord in E major, HWV 441 No 8 (Vol 2), Courante
    
   3/4 - key of G
   D A D G B E

                   e      Q.      e  e   e     e  e  e  e   e   e   
E- |--------------10--|--10-------8---------|-----------7----------|
B- |------------------|--------------12-10--|--8--7--8-----10------|
G- |------------------|--------0------------|------------------12--|
D- |------------------|---------------------|----------------------|
A- |------------------|--------------9------|--7-------------------|
D- |------------------|---5-----------------|---------------9------|
                          Q    Q     Q         H            Q

    e   e   e   e  e   e     e   e  e  e  e   e      e   e   e   e   e   e   
|------------------8--10--|--7---------7--8--10--|--12------12------12------|
|--10------10--12---------|-----10--8------------|--------------------------|
|------12-----------------|--0-------------------|------12------12------12--|
|------------------0------|----------------------|--------------------------|
|-------------------------|----------------------|--------------------------|
|--10---------------------|----------------------|----------10------10------|
    H              Q         H                               Q       Q

    e   e   e   e   e   e      e   e   e   e   e   e     e  e  e  e      e   
|--------------------------|--10------10------10------|--------0------------|
|--10----------10--12--13--|--------------------------|--8--7------------0--|
|------12--11--------------|------11------11------11--|-----------0------0--|
|--------------------------|--------------------------|---------------7-----|
|---9----------------------|--------------------------|--7------------------|
|--------------------------|-----------9-------9------|---------------------|
    H                                  Q       Q         H            Q

                        tr                           tr             
   e  e  e  e  e  e     Q          e  e  e     e  e  Q          e   
|--------0--------5--|--2(3)-------0--------|----------------------|
|-----0-----7--8-----|----------------3--1--|--0--1----------------|
|--5--7--5-----------|----------------------|--0--2--2(4)-------0--|
|--7-----------------|--0-------0-----------|--------0-------0-----|
|--------------------|----------------------|-----3----------------|
|--------------------|----------------------|----------------------|
                        Q       Q                 e  Q       Q

   Q        e  e  e     e  e  e  e  e  e     e  e  e  e  e  e   
|--------------0--2--|--3--------3--5--3--|--2--0--2--3--5--2--|
|-----------3--------|-----0--2-----------|--------------------|
|--0-----------------|--------2-----------|--------------------|
|--------------------|--2-----------------|--0-----------0-----|
|-----0--2-----------|--------------4-----|--------------------|
|--5-----------------|--------------------|--------------------|
   e  e  Q              Q     Q     Q        H           Q

   e  e  e  e  e  e     e  e  e  e  e  e     e  e  e  e  e  e   
|--7--5--3--2--0-----|-----------0--2--3--|--5-----5-----5-----|
|-----------------3--|--2--0--------------|-----2-----2-----2--|
|--0-----------------|--------2-----------|--------------------|
|--------------------|--------------------|--------------------|
|--------------------|--0-----------------|--------------------|
|--------------------|--------------------|--------4-----4-----|
   H.                   Q.                         Q     Q   

   e  e  e  e  e  e     e  e  e  e  e  e     e  e  e  e  e  e   
|--------------0--2--|--3-----3-----3-----|-----5--3--5--0--5--|
|--3--2--0--3--------|-----0-----0-----0--|--2-----------------|
|--------------------|--------------------|--2-----------------|
|--------------------|--------------------|--------------------|
|--2-----------------|--------------------|--0-----------------|
|--------------------|--------2-----2-----|--------------------|
   H                          Q     Q        H.

   e  e  e  e  e  e     e  e  e  e  e  e     e   e  e  e  e  e   
|--2--5--0--5-----5--|-----5-----5--0--5--|--2---5--0--5-----5--|
|--3-----2-----3-----|--2-----3-----2-----|--3------2-----3-----|
|--------------4-----|--2-----4-----------|---------------4-----|
|--------------------|--------------------|---------------------|
|--------------------|--------------------|---------------------|
|--------------------|--------------------|---------------------|
   Q     Q     Q        Q     Q     Q        Q      Q     Q

                              tr                                  
   e  e  e  e  e  e     e  e  Q          e     e  e  e  e  e  e   
|-----5-----5-----5--|--3--2--0(2)----------|--------------------|
|--2-----0-----------|-------------------3--|--3--2--0-----------|
|--2-----0-----2-----|--0-------------2-----|-----------2--0-----|
|--------------4-----|----------------------|--0--------------4--|
|--------------------|--------0-------------|--------------------|
|--------------------|----------------------|--------------------|
   Q     Q     Q        Q     Q       Q        H.

   e  e  e  e  e  e              e  e  e     e  e  e  e  e  e   
|--------------------|-----------5--3--5--|--2--5--0--5-----5--|
|--0-----------------|--------------------|--3-----2-----3-----|
|-----2--0-----------|--------------------|--------------4-----|
|-----------4--2--0--|--------------------|--------------------|
|--------------------|--4--2--0-----------|--------------------|
|--5-----------------|--------------------|--------------------|
   H.                   e  e  H              Q     Q     Q

   e  e  e  e  e  e     e  e  e  e  e  e     e  e  e  e  e  e   
|-----5-----5--0--5--|--2--5--0--5-----5--|-----5-----5--0--5--|
|--2-----0-----2-----|--3-----2-----3-----|--2-----3-----2-----|
|--2-----7-----------|--------------4-----|--2-----4-----------|
|--------------------|--------------------|--------------------|
|--------------------|--------------------|--------------------|
|--------------------|--------------------|--------------------|
   Q     Q     Q        Q     Q     Q        Q     Q     Q

                                                   tr             
   e  e  e  e  e  e     e  e  e  e  e  e     e  e  Q          e   
|--2--5--0--5-----5--|-----5-----5-----5--|--3--2--0(2)----------|
|--3-----2-----3-----|--2-----0-----------|-------------------3--|
|--------------4-----|--2-----0-----2-----|--0-----2-------------|
|--------------------|--------------4-----|----------------------|
|--------------------|--------------------|----------------0-----|
|--------------------|--------------------|----------------------|
   Q     Q     Q        Q     Q     Q        Q     Q       Q

   e  e  e  e  e  e     H.                   H.                  
|--------------------|--------------------|----------------||
|--3-----3-----------|--3-----------------|--3-------------||
|-----2-----2-----2--|--------------------|--2------------*||
|--0-----------4-----|--0-----0-----------|--4------------*||
|--------------------|-----0-----0-----0--|----------------||
|--------------------|--------------4-----|--0-------------||
   H.                   e  e  e  e  e  e


  e    Q    e  e  e  e     e  e  e  e  e  e     e  e  e  e  e  e   
|-5-|--5-------3--2--0--|-----------2--0-----|--0-----0--2--3--5--|
|---|-------------------|--3--2--3--------3--|-----3--------------|
|---|-------------------|--------------------|--------------------|
|---|-------0-----------|--------------------|--------------------|
|---|-------------4-----|--2-----------------|--------0-----------|
|---|--0----------------|--------------4-----|--5-----------------|
       Q    Q     Q        H           Q        Q     H

   e  e  e  e  e  e     e  e  e  e  e  e     e  e  e  e  e  e   
|--2--0-----2--3--5--|--7-----7-----7-----|--0--------0--2--3--|
|--------3-----------|-----3-----3-----3--|-----3--2-----------|
|--------------------|--------0-----0-----|--------------------|
|--0-----------------|--------------------|--------------------|
|--------------------|--------------------|--4-----------------|
|--------------------|--------------------|--------------------|
   H.                         Q     Q        H

  e  e  e  e  e  e     e  e  e  e  e  e     e  e  e  e  e  e   
|-5-----5-----5-----|--------------0--2--|--3-----3-----3-----|
|----2-----2-----2--|--3--2--0--3--------|-----0-----0-----0--|
|-------------------|--------------------|--------------------|
|-------4-----4-----|--------------------|--------2-----2-----|
|-------------------|--2-----------------|--------------------|
|-------------------|--------------------|--------------------|
        Q     Q        H                          Q     Q

   e  e  e  e  e  e     e  e  e  e  e  e     e  e  e   e   e   e   
|-----------0--------|--5--7--5--3--2--0--|-----------------------|
|--------------7--8--|--------------------|--4--2--0--12--10--12--|
|--6--4--------------|--------------------|--4--------------------|
|--------7-----------|--------4-----4-----|-----------------------|
|--0-----------------|--------------------|-----------------------|
|--------------------|--------------------|-----------------------|
   H                          Q     Q         Q    

   e  e  e  e  e  e     e  e  e  e  e  e     e  e  e  e  e  e   
|-----7-----7-----7--|-----7-----7-----7--|-----7-----7-----7--|
|--8-----7-----5-----|--4-----5-----7-----|--8-----7-----5-----|
|--9-----8-----6-----|--4-----5-----7-----|--9-----8-----6-----|
|--------------------|--------------------|--------------------|
|--------------------|--------------------|--------------------|
|--------------------|--------------------|--------------------|
   Q     Q     Q        Q     Q     Q        Q     Q     Q 

                              tr                                  
   e  e  e  e  e  e     e  e  Q          e     e  e  e  e  e  e   
|-----7-----7-----7--|--5--3--2(3)----------|--0--2--3--2--------|
|--4-----------------|--------0-------0--5--|--------------5--3--|
|--4-----6-----4-----|--2-------------------|--------------------|
|--------7-----5-----|----------------------|--2-----------------|
|--------------------|----------------------|--------------------|
|--------------------|----------------------|--------------------|
   Q     Q     Q        Q     Q       Q        H

   e  e  e  e  e  e     e  e  e  e  e  e     e  e  e  e  e  e   
|--------0-----------|--------------------|--------------------|
|--2--3-----3--1--0--|-----------7--5--7--|-----7-----7-----7--|
|--------------------|--3-----------------|--7-----6-----4-----|
|--------------------|-----6--4-----------|--9-----8-----6-----|
|--------------------|--------------------|--------------------|
|--------2-----2-----|--4-----------------|--------------------|
         Q     Q        Q.                   Q     Q     Q

    
   e  e  e  e  e  e     e  e  e  e  e  e     e  e  e  e  e  e   
|--------------------|--------------------|--------------------|
|-----7-----7-----7--|--- -7-----7-----7--|-----7-----7-----7--|
|--------4-----6-----|--7-----6-----4-----|--------------------|
|--8-----6-----8-----|--9-----8-----6-----|--8-----6-----4-----|
|--9-----------------|--------------------|--9-----7-----5-----|
|--------------------|--------------------|--------------------|
   Q     Q     Q        Q     Q     Q        Q     Q     Q 

         tr                                                       
   e  e  Q          e     e  e  e  e  e  e     e  e  e  e  e  e   
|--0-------------------|--------------------|--------0-----------|
|-----3--2(3)-------0--|--0--2--3--2--0-----|-----0-----3--1--0--|
|----------------------|-----------------2--|--1-----1-----1-----|
|--2-----4-------4-----|--------------------|--------2-----2-----|
|----------------------|--2-----------------|--------------------|
|----------------------|--------------------|--------------------|
   Q     Q       Q        H                          Q     Q

   e  e  e  e  e  e     e  e  e  e  e  e     e  e  e  e  e  e   
|--------------------|--------------------|--------------0--2--|
|--1-----1-----------|--------3--1--0-----|--0--------3--------|
|-----2-----4--2--0--|-----2-----------2--|-----2--0-----------|
|--------------------|--4-----------------|--------------------|
|--0-----------------|--------------------|--------------------|
|--------------------|--------4-----4-----|--5-----------------|
   H                          Q     Q        H

   e  e  e  e  e  e     e  e  e  e  e  e     e  e  e  e  e  e   
|--3-----3-----3-----|--0--------0--2--3--|--5--0--5--0--5--0--|
|-----3--0--3--0--3--|-----3--1-----------|--------2-----2-----|
|--------0-----0-----|--------------------|--------2-----2-----|
|--------------------|--------------------|--------------------|
|--------------------|--3-----------------|--------------------|
|--------------------|--------------------|--------------------|
         Q     Q        H                          Q     Q

   e  e  Q    e   e      Q       e  e   e     e  e  e  e   e   e   
|--2--0----------10--|--10-------8--7------|-----------7----------|
|--------3-----------|-----------------10--|--8--7--8-----10------|
|--------------------|--------0------------|------------------12--|
|--0----------0------|---------------------|----------------------|
|--------------------|--------------9------|--7-------------------|
|--------0-----------|---5-----------------|---------------9------|
   Q     Q    Q          Q    Q     Q         H            Q

    e   e   e  e  e   e     e   e  e  e  e   e      e   e   e   e   e   e   
|--------------7--8--10--|--7---------7--8--10--|--12------12------12------|
|--10------10------------|-----10--8------------|--------------------------|
|------12----------------|--0-------------------|------12------12------12--|
|-----------------0------|----------------------|--------------------------|
|------------------------|----------------------|--------------------------|
|--10--------------------|----------------------|----------10------10------|
    H             Q         H                               Q       Q

    e   e   e   e   e   e      e   e   e   e   e   e     e  e  e  e     e   
|--------------------------|--10------10------10------|--------0-----------|
|--10----------10--12--13--|--------------------------|--8--7-----------0--|
|------12--11--------------|------11------11------11--|-----------0-----0--|
|--------------------------|--------------------------|--------------7-----|
|---9----------------------|--------------------------|--7-----------------|
|--------------------------|-----------9-------9------|--------------------|
    H                                  Q       Q         H           Q       

                       tr                                        
   e  e  e  e  e  e     Q          e  e  e     e  e  e  e  e  e   
|--------0--------5--|--2(3)-------0--------|--------------------|
|-----0-----7--8-----|----------------3--1--|--0--3--1--0--------|
|--5--7--5-----------|----------------------|--0--4--2--0--2--0--|
|--7-----------------|--0-------0-----------|--------------------|
|--------------------|----------------------|--------------------|
|--------------------|----------------------|--------------------|
                        Q       Q

   e  e  e  e  e  e     e  e  e  e  e  e     e  e  e  e  e  e   
|--------------------|--------------------|--------------------|
|-----------3--1--3--|--0--3-----3-----3--|-----3-----3-----3--|
|--------------------|--0-----2-----0-----|--------0-----2-----|
|--4--2--0-----------|--------4-----2-----|--4-----2-----4-----|
|--------------------|--------------------|--5-----------------|
|--------------------|--------------------|--------------------|
                        Q     Q     Q        Q     Q     Q

                                                  tr             
   e  e  e  e  e  e     e  e  e  e  e  e     e  e  Q          e   
|--------------------|--------------------|----------------------|
|--0--3-----3-----3--|-----3-----3-----3--|--1--0----------------|
|--0-----2-----0-----|--------------------|--------2(4)-------0--|
|--------4-----2-----|--4-----2-----0-----|--------0-------0-----|
|--------------------|--5-----3-----2-----|--3-------------------|
|--------------------|--------------------|----------------------|
   Q     Q     Q        Q     Q     Q        Q     Q       Q 

   e  e  e  e  e  e     e  e  e  e  e  e     e  e  e   e  e   e   
|--------------------|--0-----------------|-----------10--8--10--|
|--------------------|-----3--1--0--------|----------------------|
|--0-----------------|--------------2--0--|----------------------|
|-----4--2--0--------|--------------------|--4--2--0-------------|
|--------------3--2--|--3-----------------|----------------------|
|--5-----------------|--------------------|--0-------------------|
   Q                    H.                   H.

   e   e   e   e  e   e     e   e  e   e   e   e      e   e   e   e  e   e   
|--7--10------10-----10--|-----10-----10------10--|------10------10-----10--|
|--8------10------8------|--7------8------10------|--12------10------8------|
|---------11------9------|--7------9------11------|--12------11------9------|
|------------------------|------------------------|-------------------------|
|------------------------|------------------------|-------------------------|
|------------------------|------------------------|-------------------------|
   Q       Q      Q         Q      Q       Q          Q       Q      Q 

                                  tr                                  
   e   e  e   e  e   e     e   e   Q          e     e  e  e  e  e  e   
|-----10-----10-----10--|--8---7--------------3--|--3-----3-----------|
|--7--------------------|---------10(12)---------|-----3-----3--0--3--|
|--7------9------7------|------------------------|--0-----------------|
|--------10------9------|-10------12-------------|--------------------|
|-----------------------|-------------------3----|--------------------|
|-----------------------|------------------------|--------------------|
   Q      Q      Q         Q       Q        Q       H

   e  e  e  e  e  e         
|--------------------|--------||
|--------------------|--------||
|--0-----0-----------|--------||
|-----0-----0-----0--|--------||
|--------------2-----|--------||
|--------------------|--5-----||
                        H.

++++++++++++++++++++++++++++++++

H - half    
Q - quarter   
e - 8th
. - note doted
tr- trill

******************************************************************************
******************************************************************************

Courante from Harpsichord Suite Vol 2 No 8 in G HWV 441 - GF Handel

Transcribed for Classical Guitar by Thomas Schenkman, Long Island NY

This is one of my favorite pieces. I hope you enjoy it.

 |       |       |        |       |       |        |       |       |        
|------------------------|------------------------|------------------------|
|--------------------3---|3-----------1---0-------|------------0-----------|
|------------------------|--------0-----------2---|0-------0-------2---0---|
|------------------------|----------------4-------|2---4-------------------|
|------------------------|------------------------|----------------2-------|
|------------------------|3-----------------------|------------------------|
 
 |       |       |        |       |       |        |       |       |        
|------------------------|------------------------|0-------0-------0-------|
|------------0-------3---|0-----------0---1---3---|------------------------|
|2---0---2-------5-------|----2---0---------------|----0-------0-------0---|
|----------------4-------|------------------------|------------------------|
|3-----------------------|------------------------|--------3-------3-------|
|------------------------|3-----------------------|------------------------|
 
 |       |       |        |       |       |        |       |       |        
|------------------------|------------------------|------------------------|
|----------------0---1---|3-------3-------3-------|--------------------0---|
|2---0-------2-----------|------------------------|0-----------0---2-------|
|--------4---------------|----4-------4-------4---|----4---2---------------|
|------------------------|--------2-------2-------|------------------------|
|2-----------------------|------------------------|0-----------0---2---3---|
 
 |       |       |        |       |       |        |       |       |        
|------------2---3---5---|2---2-------0-----------|------------------------|
|1---3---5---------------|----------------3---1---|0---1-----------3-------|
|------------------------|------------------------|--------2-----------0---|
|------------0---2---4---|0-------0---------------|--------0---------------|
|0---2---3---------------|------------3---2---0---|----3-------------------|
|------------------------|------------------------|3-----------------------|
 
 |       |       |        |       |       |        |       |       |        
|----------------0---2---|3-----------3---5---3---|2-------2---3---5-------|
|--------0---3-----------|--------2---------------|----5---------------7---|
|0---2-------2---0-------|----4---2---------------|------------------------|
|--------------------4---|2-----------------------|0-----------2---4-------|
|------------------------|----------------4-------|--------------------7---|
|3-----------------------|------------------------|------------------------|
 
 |       |       |        |       |       |        |       |       |        
|7---5---3---2-----------|------------0---2---3---|5-------5-------5-------|
|----------------5---3---|2---0-------------------|----2-------2-------2---|
|------------------------|--------2---------------|------------------------|
|5---4---2---0-----------|------------------------|------------------------|
|----------------4---2---|0-----------------------|------------------------|
|------------------------|------------------------|--------2-------2-------|
 
 |       |       |        |       |       |        |       |       |        
|----------------0---2---|3-------3-------3-------|----5---3---5-------5---|
|3---2---0---3-----------|----0-------0-------0---|2---------------5-------|
|------------------------|------------------------|------------------------|
|------------------------|------------------------|------------------------|
|2-----------------------|------------------------|0-----------------------|
|------------------------|--------0-------0-------|------------------------|
 
 |       |       |        |       |       |        |       |       |        
|2---5-------5-------5---|----5---3---5-------5---|2---5-------5-------5---|
|--------5-------3-------|2---------------5-------|--------5-------3-------|
|------------------------|------------------------|------------------------|
|0-----------------------|------------------------|0-----------------------|
|--------4-------2-------|0-------2-------4-------|--------4-------2-------|
|------------------------|------------------------|------------------------|
 
 |       |       |        |       |       |        |       |       |        
|----5-------5-------5---|3---2---0---------------|------------------------|
|2-----------------------|--------------------3---|3---2---0---------------|
|--------4-------2-------|----------------2-------|------------2---0-------|
|------------------------|------------------------|0-------------------4---|
|0-----------------------|--------0---------------|------------------------|
|--------3-------2-------|3-----------------------|------------------------|
 
 |       |       |        |       |       |        |       |       |        
|------------------------|------------------------|------------------------|
|0-----------------------|------------------------|------------------------|
|----2---0---------------|------------2---0---2---|----2-------2-------2---|
|------------4---2---0---|------------------------|4-------2-------0-------|
|------------------------|4---2---0---------------|--------4-------2-------|
|3-----------------------|5-----------------------|------------------------|
 
 |       |       |        |       |       |        |       |       |        
|----5-------5-------5---|2---5-------5-------5---|------------2---0-------|
|2-------3-------5-------|--------5-------3-------|3---2---3-----------3---|
|------------------------|------------------------|------------------------|
|------------------------|0-----------------------|------------------------|
|0-------2-------4-------|--------4-------2-------|0-----------------------|
|------------------------|------------------------|--------3-------2-------|
 
 |       |       |        |       |       |        |       |       |        
|3---2---0---------------|10------10--------------|--------------------5---|
|--------------------3---|----10------10--7---10--|3-----------------------|
|------------------------|------------------------|------------------------|
|------------------------|--------7---------------|------------------------|
|----------------0-------|------------10--9---7---|5-----------------------|
|0---2---3---------------|10----------------------|------------------------|
 
 |       |       |        |       |       |        |       |       |        
|5-----------------------|------------2---0-------|0-------0---2---3---5---|
|------------8---7---5---|3---2---3-----------3---|----3-------------------|
|--------7---------------|------------------------|------------------------|
|------------------------|------------------------|----------------2-------|
|5---------------4-------|2-----------------------|------------------------|
|------------------------|----------------2-------|3-----------------------|
 
 |       |       |        |       |       |        |       |       |        
|2-----------2---3---5---|7-------7-------7-------|0-----------0---2---3---|
|----5---3---------------|------------------------|----3---2---------------|
|------------------------|----7-------7-------7---|------------------------|
|0-----------------------|--------5-------5-------|------------------------|
|------------------------|------------------------|4-----------------------|
|------------------------|------------------------|------------------------|
 
 |       |       |        |       |       |        |       |       |        
|5-------5-------5-------|----------------0---2---|3-------3-------3-------|
|----2-------2-------2---|3---2---0---3-----------|----0-------0-------0---|
|------------------------|------------------------|------------------------|
|------------------------|------------------------|------------------------|
|------------------------|2-----------------------|------------------------|
|--------2-------2-------|------------------------|--------0-------0-------|
 
 |       |       |        |       |       |        |       |       |        
|------------0---2---3---|5---7---5---------------|------------7---5---7---|
|2---0-------------------|------------8---7---5---|4---2---0---------------|
|--------2---------------|------------------------|------------------------|
|------------------------|--------4-------4-------|------------------------|
|0-----------------------|------------------------|2-----------------------|
|------------------------|------------------------|------------------------|
 
 |       |       |        |       |       |        |       |       |        
|----7-------7-------7---|----7-------7-------7---|----7-------7-------7---|
|8-------7-------5-------|4-------5-------7-------|8-------7-------5-------|
|9-------8-------6-------|4-------6-------8-------|9-------8-------6-------|
|------------------------|------------------------|------------------------|
|------------------------|------------------------|------------------------|
|------------------------|------------------------|------------------------|
 
 |       |       |        |       |       |        |       |       |        
|----7-------7-------7---|5---3---2-----------0---|0---2---3---2---0-------|
|4-----------------------|------------------------|--------------------3---|
|4-------6-------4-------|2-------4---------------|------------------------|
|--------7-------5-------|------------------------|------------------------|
|------------------------|----------------2-------|------------------------|
|------------------------|------------------------|0-----------------------|
 
 |       |       |        |       |       |        |       |       |        
|--------0---------------|------------2---0---2---|----2-------2-------2---|
|2---3-------3---2---0---|------------------------|3-------2-------0-------|
|------------------------|3---1-------------------|4-------3-------1-------|
|------------------------|--------4---------------|------------------------|
|--------4-------4-------|------------------------|------------------------|
|------------------------|2-----------------------|------------------------|
 
 |       |       |        |       |       |        |       |       |        
|----2-------2-------2---|----2-------2-------2---|----2-------2-------2---|
|--------0-------2-------|3-------2-------0-------|------------------------|
|3-------1-------3-------|4-------3-------1-------|3-------1---------------|
|4-----------------------|------------------------|4-------2-------4-------|
|------------------------|------------------------|----------------5-------|
|------------------------|------------------------|------------------------|
 
 |       |       |        |       |       |        |       |       |        
|0-----------------------|------------------------|--------0---------------|
|----3---2-----------0---|0---2---3---2---0-------|----0-------3---1---0---|
|------------------------|--------------------2---|1-----------------------|
|2-------4---------------|------------------------|--------2-------2-------|
|------------------------|2-----------------------|------------------------|
|----------------2-------|------------------------|------------------------|
 
 |       |       |        |       |       |        |       |       |        
|------------------------|------------------------|----------------0---2---|
|1-------1---0-----------|--------3-------0-------|0-----------3-----------|
|----2-----------2---0---|----2-------5-------2---|----2---0---------------|
|------------------------|4-------4-------4-------|------------------------|
|0-----------------------|------------------------|------------------------|
|------------------------|------------------------|3-----------------------|
 
 |       |       |        |       |       |        |       |       |        
|3-------3-------3-------|0-----------0---2---3---|5-------5-------5-------|
|----3-------3-------3---|----3---1---------------|----5-------5-------5---|
|--------0-------0-------|------------------------|--------6-------6-------|
|------------------------|------------------------|--------7-------7-------|
|------------------------|3-----------------------|------------------------|
|------------------------|------------------------|------------------------|
 
 |       |       |        |       |       |        |       |       |        
|2---0-------------------|------------------------|------------------------|
|--------3-----------3---|3-----------1---0-------|------------0-----------|
|------------------------|--------0-----------2---|0-------0-------2---0---|
|0-------0---------------|----------------4-------|2---4-------------------|
|------------3---2---0---|------------------------|----------------2-------|
|------------------------|3-----------------------|------------------------|
 
 |       |       |        |       |       |        |       |       |        
|------------------------|------------------------|0-------0-------0-------|
|------------0---1---3---|0-----------0---1---3---|------------------------|
|2---0---2---------------|----2---0---------------|----0-------0-------0---|
|----------------0-------|------------------------|------------------------|
|3-----------------------|------------------------|--------3-------3-------|
|------------------------|3-----------------------|------------------------|
 
 |       |       |        |       |       |        |       |       |        
|------------------------|------------------------|------------------------|
|----------------0---1---|3-------3-------3-------|--------------------0---|
|2---0-------2-----------|------------------------|0-----------0---2---0---|
|--------4---------------|----4-------4-------4---|----4---2---2---4-------|
|------------------------|--------2-------2-------|------------------------|
|2-----------------------|------------------------|0-----------------------|
 
 |       |       |        |       |       |        |       |       |        
|------------2---3---5---|2---0-------0-----------|------------------------|
|----3---5---3---5---7---|3-------3---1---3---1---|0---3---1---0-----------|
|5---4---5---------------|----------------4---2---|0---4---2---0---2---0---|
|7-----------------------|------------------------|----------------4---2---|
|------------------------|------------------------|------------------------|
|------------------------|------------------------|------------------------|
 
 |       |       |        |       |       |        |       |       |        
|------------------------|------------------------|------------------------|
|------------3---1---3---|0---3-------3-------3---|----3-------3-------3---|
|------------------------|--------2-------0-------|--------0-------2-------|
|4---2---0---------------|--------4-------2-------|4-------2-------4-------|
|5---3---2-------0-------|------------------------|5-----------------------|
|------------------------|3-----------------------|------------------------|
 
 |       |       |        |       |       |        |       |       |        
|------------------------|------------------------|------------------------|
|0---3-------3-------3---|----3-------3-------3---|1---0-------------------|
|0-------2-------0-------|------------------------|--------2-----------0---|
|--------4-------2-------|4-------2-------0-------|----------------0-------|
|------------------------|5-------3-------2-------|0---2---3---------------|
|------------------------|------------------------|------------------------|
 
 |       |       |        |       |       |        |       |       |        
|3---2---0---------------|0-----------------------|------------------------|
|------------3---1---0---|----3---1---0-----------|------------3---1---3---|
|------------------------|----------------2---0---|------------------------|
|------------------------|------------------------|4---2---0---------------|
|------------------------|3-----------------------|5-----------------------|
|3-----------------------|------------------------|------------------------|
 
 |       |       |        |       |       |        |       |       |        
|------------------------|------------------------|------------------------|
|0---3-------3-------3---|----3-------3-------3---|0---3-------3-------3---|
|0-------2-------0-------|--------0-------2-------|0-------2-------0-------|
|--------4-------2-------|4-------2-------4-------|--------4-------2-------|
|------------------------|5-----------------------|------------------------|
|------------------------|------------------------|------------------------|
 
 |       |       |        |       |       |        |       |       |        
|------------------------|------------------------|------------------------|
|----3-------3-------3---|1---0-------------------|------------------------|
|------------------------|--------2-----------0---|0-------0---------------|
|4-------2-------0-------|----------------0-------|----0-------0-------0---|
|5-------3-------2-------|0---2---3---------------|----------------2-------|
|------------------------|------------------------|3-----------------------|
 
 |       |       |        
|-----------------------||
|-----------------------||
|0----------------------||
|-----------------------||
|2----------------------||
|3----------------------||
 





Comments


Popular George Frederic Hande tabs & chords
Air In Bb Tabs
Air Of Bass No 311 - Aria Allegro Larghetto Tabs
Arioso Tabs
Bourree In G Tabs
Fugue In G Tabs
Keyboard Suite Vol 1 No 7 In Gm Hwv 432 - Passacaille Passacaglia Tabs
Keyboard Suite Vol 2 No 4 In Dm Hwv 437 - 2 Allemande Tabs
Largo Tabs
Minuet In D Tabs
Minuet No 3 In E Tabs


Song lyrics



↑ Back to top | Tablatures and chords are parodies/interpretations of the original songs. You may use it for private study, scholarship, research or language learning purposes only
© 2014 AZChords.com Contact us | Privacy policy | DMCA | Add/correct tabs | Request tabs | Top 50 tabs