>
 >
Fugue In G

Fugue In G Guitar Tabs

George Frederic Hande - Fugue In G chords, tabs, tablatures, lyrics

Guitar lessons | Add/correct | Request | Top 50 tabs Artists:  A B C D E F G H I J K L M N O P Q R S T U V W X Y Z 0-9

Fugue In G Guitar Tabs – George Frederic Hande

CD, Sheet music, Poster

Do you like Fugue In G? Share with your friends now
Tabs
Fuga (Fugue in G)

***************************************************************
***************************************************************

E||-------------------------|--------3-----------2-----|
B||----------0--------3-----|--0--------0--------3--1--|
G||--0----0-----2--------5--|--0--0--------2-----------|
D||----------------0--4-----|-----------------0--------|
A||-------------------------|--------------------------|
E||--3----------------------|--------------------------|

--3-----0-----------------|--------------------------|
--0--3-----0--2-----3--0--|-----0--2-----3-----3-----|
--------0--------2--------|--0-----2--0-----2--------|
--------------------4--4--|--2-----------4--------0--|
--------------------------|--------------------------|
--------------------------|--------------------------|

--------------------------|--------------------3-----|
--------1-----------0-----|--------------------------|
--------------0-----0-----|--2-----------0-----------|
--2--0--2--4-----0--------|--------0--------------2--|
-----------------------2--|--3--0-----3--2-----------|
--------------------------|-----------------3--------|

--------1-----------0-----|----------------------0--|
-----------0--1-----------|--3-----0-----1----1-----|
--2--0--2--------0--2-----|--2-----0----------------|
-----------------------2--|--3--0--------2----------|
--------------------------|--------------3----------|
--------------------------|-----------3-------------|

--------3--1--0-----------|------------------------|
--3-----0-----1--3--1-----|--------0---------3--0--|
-----0--------------------|--------0----2----------|
-----------------------2--|--4--0------------4-----|
--------------------------|------------------------|
--------------------------|------------------------|

---------------------0--|--------------------------|
--------1----0----------|--2-----3-----------2-----|
--1-----2---------0-----|-----2------------0-2--0--|
-----2------------------|--------4----2--4---------|
------------------------|--------------------------|
------------------------|--------------------------|

-----------------0--------|--------3--2--0-----------|
--3--------0--1-----3--1--|--0--3--0-----1--3--1--0--|
--------2--0--2-----------|--0--------------4--2--0--|
--4--0--4-----------4-----|--------------------------|
--------------------------|--------------------------|
--------------------------|--------------------------|

--------------------------|--------------------------|
--------3-----------1-----|--------0-----------------|
--2-----------------------|--0-----------2-----------|
--4--2--4--0--2--0--2--4--|-----0--2-----------0-----|
--------------------------|-----------2--3--0-----3--|
--------------------------|--------------------------|

--------3--2--0-----------|-----2--3----------------|-------------------||
-----------------3--1--0--|-----------0-------------|-------------------||
--0-----------------------|--2-----------2-------0--|--0----------------||
--------------------------|--0-----------5----4-----|--0----------------||
--2--0--------3--2--0-----|-----3--2--3--5----------|--2----------------||
--------3-----------------|-------------------------|--3----------------||





Comments


Popular George Frederic Hande tabs & chords
Air In Bb Tabs
Air Of Bass No 311 - Aria Allegro Larghetto Tabs
Bourree In G Tabs
Keyboard Suite Vol 1 No 7 In Gm Hwv 432 - Passacaille Passacaglia Tabs
Keyboard Suite Vol 2 No 4 In Dm Hwv 437 - 2 Allemande Tabs
Keyboard Suite Vol 2 No 4 In Dm Hwv 437 - 3 Courante Tabs
Keyboard Suite Vol 2 No 8 In G Hwv 441 - Courante Tabs
Largo Tabs
Minuet No 3 In E Tabs
Sonatine - Allegretto In A Tabs


Song lyrics



↑ Back to top | Tablatures and chords are parodies/interpretations of the original songs. You may use it for private study, scholarship, research or language learning purposes only
© 2014 AZChords.com Contact us | Privacy policy | DMCA | Add/correct tabs | Request tabs | Top 50 tabs