» » »

Chorale Tabs (ver.1)

Artists:  A B C D E F G H I J K L M N O P Q R S T U V W X Y Z # 

Chorale Tabs (ver.1)

George Frederic Hande
Rating:
0/5 (0 votes)

Hard to play? Try these video lessons and learn fast.
                Choral de G.F. Haendel (1685-1759)

Beautiful piece. It's not too hard. Play slowly a tempo.
You can slow down in the end and play second time of each part louder.
Or you can play crescendo all along, as you feel it. Any combination
is possible. So have fun!

yannickroulin at yahoo dot com
*****************************************************************************

     ¦    ¦    ¦    ¦        ¦     ¦     ¦    ¦        ¦    ¦     ¦     ¦    

E||-----------------------|-------------------------|----------0--------5--4--|
B||--2----0----5-------3--|--3--2--0-----2----0--2--|--3----3-----3--2--2--6--|
G||--2----1----2----4-----|--2-----2--2--2----------|--2----4-----2-----2--4--|
D||--2----0----2----2-----|--2-----1-----2----2-----|--4----2-----2-----------|
A||--0---------4----------|--0----------------------|-------------0-----------|
E||-----------------4-----|--------2-----0----4-----|--2----4-----------2--4--|

  ¦     ¦     ¦     ¦        ¦    ¦     ¦    ¦         ¦     ¦     ¦    ¦   

--4--2--------0-----------|---------------------2---|-------------------------|
--2-----5--4--0-----0--3--|--2----0---5-5---------3-|--3--2--0-----2----0--2--|
--2-----2-----1-----------|--2----1-----2----4------|--2-----2--2--2----1--2--|
--------4-----2-----------|--2----0-----2----2------|--2-----1-----2----0--5--|
--0-----2-----------------|--0----------4-----------|--0----------------------|
-----------------0--2--4--|------------------4------|--------2-----0----------|

                                1.______________________
  ¦          ¦     ¦     ¦        ¦    ¦     ¦    ¦

-------------0--2--0--5--2-----|------------------------||
--3--5-3-2-3-2--3--------3--3--|--2-------0-------------||
--2----------------2--2--------|--2----1-----2---------*||
--4----------2--0--------0--4--|--2----0-----2---------*||
-------------------4--4-----2--|-------------4----------||
-------------------------------|--0----------5----0-----||

2._______________________
  ¦    ¦     ¦     ¦          ¦     ¦     ¦    ¦

-------------------------||------------0--0-------0--|
--2-------0--------------||---0--2--3-----0----4--0--|
--2----1-----2-----------||*--1-----1-----2-------1--|
--2----0-----2--2--------||*--2-----2-----4-------2--|
-------------4-----4-----||--------------------------|
--0----------5--------5--||---0----------------------|

  ¦          ¦     ¦     ¦        ¦     ¦     ¦     ¦   

--2--4-2-0-2-4--5--5-----4-----|--4--2--5--4--7--5--4--2--|
--0----------0--0--4-----5-----|--2-----2-----3-----6--2--|
-------------------------------|--2--------------6--4--2--|
--1----------2--4--4-----6-----|--------3-----3--4--6-----|
-------------------2--3--4-----|--0-----4--------------0--|
----------------------------7--|--------------------------|

  ¦     ¦        ¦     ¦        ¦     ¦      ¦     ¦   

--0--0--4--2-4-2-0-----------|-------------0----------2---|
--0-----4--------0-----------|--2-----0------5----------3-|
--1-----2--------1-----------|--2-----1------2-----4------|
--2-----------------2--0-----|--2--2--0--2---2--2--2--2---|
--------2-----------------2--|--0------------4------------|
--0--------------0-----------|---------------------4------|

  ¦     ¦     ¦    ¦        ¦     ¦     ¦     ¦   

-------------------------|-----0--2--4--7--5--2-----|
--3--2--0-----2----0--2--|--3--2--3--5--5-----3--3--|
--2-----2--2--2----1--2--|--2-----------------------|
--2-----1-----2----0--5--|--4--2--0--0--------0--4--|
--0----------------------|--------------4--------2--|
--------2-----0----------|--------------------------|

1.________________________  2.____________________
  ¦    ¦     ¦     ¦          ¦    ¦     ¦    ¦

--------------------------||----------------------||
--2-------0---------------||--2-------0-----------||
--2----1-----2-----------*||--2----1-----2--------||
--2----0-----2--2--------*||--2----0-----2--------||
-------------4-----4------||-------------4--------||
--0----------5--------5---||--0----------5--------||
            
Hard to play? Try these video lessons and learn fast. | Correct




comments powered by Disqus
↑ Back to top | Tablatures and chords are parodies/interpretations of the original songs. You may use it for private study, scholarship, research or language learning purposes only