>
 >
Arioso

Arioso Guitar Tabs

George Frederic Hande - Arioso chords, tabs, tablatures, lyrics

Guitar lessons | Add/correct | Request | Top 50 tabs Artists:  A B C D E F G H I J K L M N O P Q R S T U V W X Y Z 0-9

Arioso Guitar Tabs – George Frederic Hande

CD, Sheet music, Poster

Do you like Arioso? Share with your friends now
Tabs
 Composer:   Georg Friedrich Handel (1685-1759)
    Speed:   Largo

Explanation

* = hold / let ring for rest of measure
. = dotted notes

Part I
                  *           *           .         *
E-----------|-----------|-----------|-----2-----0-|-0---------|
B-----------|-----3-----|-----3-----|-3---3---3---|-2---2---2-|
G-----------|-0---0---0-|-2---2---2-|-4---4---4---|-2---2---2-|
D-4---4---4-|-0---0---0-|-0---0---0-|-0---4---4-2-|-2---2---2-|
A-5---5---5-|-----------|-----------|-------------|-----------|
E-----------|-----------|-----------|-------------|-----------|

      *           *           .         *               .
E-----0-----|-----0-----|-0---3---0-2-|-2---------|-5---2-----0-|
B-3---3---3-|-----------|-2---2---2---|-3---3---3-|-5---2---2---|
G-2---2---2-|-2---2---2-|-----2---0---|-2---2---2-|-2---2---2---|
D-2---2---2-|-2---2---2-|-2---2-----4-|-4---4---4-|-----4---4-2-|
A-----------|-----------|-------------|-----------|-------------|
E-----------|-----------|-------------|-----------|-------------|

  *               .         *           *             .
E-----------|-------------|-----------|-------------|-0-----2---3-|
B-3---------|-3---0-------|-----------|-3-----------|-----0-----0-|
G-4---4---4-|-0---0---0-2-|-2---------|-2-----------|-----------0-|
D-4---4---4-|-0---2---2---|-4---4---4-|-0---4-----2-|-2---2-4-----|
A-5---5---5-|-------------|-5---5---5-|-----5-------|-------------|
E-----------|-------------|-----------|-------------|-------------|

      .         *
E-2---0-------|-----------|
B-3---2-----3-|-3---------|
G-----2---2---|-----------|
D-4-------5---|-4---4---4-|
A-------------|-5---5---5-|
E-------------|-----------|

Part II

      .                           *
E-0-----------|-2---0---0-|-2---2-0-----|-----------|-----------|
B-----3-2-0---|-----2-----|-----0---0-2-|---------2-|-3---------|
G-2---2-----2-|---------3-|-4---0---0---|-3---4-----|-----4---4-|
D-2---2---2---|-----4---4-|-4-------2---|-4---4---4-|-4---4---4-|
A-------------|-----------|-------------|-----------|-5---------|
E-------------|-----------|-------------|-----------|-----------|

      .         *           .
E-----0-------|-----------|-0---------0-|-0-----------|-----2---0---|
B-0---0-----4-|-4---------|-0---0-4---0-|-2---3-2-0---|-----------3-|
G-0---0---4---|-4---4---4-|-------------|-2---2-----2-|-2---2---2---|
D---------5---|-4---4---4-|-2---2-----2-|-2---2---2---|-0---4---2-0-|
A-------------|-----6---6-|-------------|-------------|-------------|
E-------------|-----------|-------------|-------------|-------------|

      .         *                 .
E-------------|-----------|-5-------------|-----------|
B-2---0-------|-----------|---2---0-------|-----------|
G-2---2---1-2-|-2---------|-2-----2---1-2-|-2---------|
D-----0---0---|-----------|-------4---2---|-2---2---2-|
A-4-----------|-4---4---4-|---------------|-----------|
E-------------|-----------|---------------|-----------|

Now repeat part I and then play this: "finale grandioso"

                              .          *
E-0---2---3-|-5-------3-|-2---0--------|-----------|
B-2---3---5-|-7---3---5-|-3---2----2-3-|-3---------|
G-2---2---6-|-7---4---4-|-2---2----0---|-2---------|
D-2---4---5-|-7---4---5-|-4---2-4------|-4---------|
A-----------|-----------|--------------|-5---------|
E-----------|-----------|--------------|-----------|





Comments


Popular George Frederic Hande tabs & chords
Bourree In G Tabs
Fugue In G Tabs
Keyboard Suite Vol 1 No 7 In Gm Hwv 432 - Passacaille Passacaglia Tabs
Keyboard Suite Vol 2 No 4 In Dm Hwv 437 - 2 Allemande Tabs
Keyboard Suite Vol 2 No 4 In Dm Hwv 437 - 3 Courante Tabs
Keyboard Suite Vol 2 No 8 In G Hwv 441 - Courante Tabs
Largo Tabs
Minuet No 3 In E Tabs
Sarabande In Dm Tabs
Sonatine - Allegretto In A Tabs


Song lyrics



↑ Back to top | Tablatures and chords are parodies/interpretations of the original songs. You may use it for private study, scholarship, research or language learning purposes only
© 2014 AZChords.com Contact us | Privacy policy | DMCA | Add/correct tabs | Request tabs | Top 50 tabs