» » »

George Benson, This Masquerade Tabs (ver.1)

Artists:  A B C D E F G H I J K L M N O P Q R S T U V W X Y Z # 

This Masquerade Tabs (ver.1)

George Benson Tabs
 Rating:
4.2/5 (5 votes)
This Masquerade lessons Tabs too difficult? Try these video lessons and learn fast
                
++++++++++++++++++++++
Chord melody theme of the famous G Benson song

++++++++++++++++++++++

|--1-----------|--3-1---------------|--------------------|--3-3------|
|--1---------1-|--1---1-------1-----|----------4--2------|--3-3-5-5--|
|------0-1-3---|--1-----3-1-3---1---|----1-----4----1-3--|--5-5-4-4--|
|--3-3---------|--1---------------3-|--3---3---3---------|--3-3-3-3--|
|--3-----------|--------------------|----------4---------|--5-5------|
|--1-----------|--------------------|--------------------|--3-3-3-3--|


|--1-----------|--3-1---------------|
|--1---------1-|--1---1-------1-----|
|------0-1-3---|--1-----3-1-3---1---|
|--3-3---------|--1---------------3-|
|--3-----------|--------------------|
|--1-----------|--------------------|

|------------------|--1--------|
|------------------|--1--------|
|----1---4-3-1-3-1-|--1--------|
|--3---3-3-2-------|--3--------|
|------------------|--3--------|
|--------3-2-------|--1--------|

Bridge

|---------4-----------------|-----|--------4-----------|
|--4--6-7---7---6-4-6-------|--6--|--4-6-7---7-6-4-6---|
|--6--------6-------------3-|--5--|----------------5---|
|--6--------4---------6-6---|--6--|----------------6---|
|-----------6---------------|--4--|----------------4---|
|--6------------------------|-----|--------------------|

|--------3-------|---------------------|----------------|--5--|
|--3-5-6---6-5-3-|--5------------------|----------3-----|--5--|
|--5-------------|--4-------3-------4--|--------5---3-5-|--4--|
|--5-------------|--5-5-5-5-3-5-5-5-3--|--5-5-5---------|--3--|
|----------------|--3------------------|----------------|-----|
|--5-------------|----------3-------3--|----------------|--2--|

End of bridge

|--1-----------|--3-1---------------|--------------------|--3-3------|
|--1---------1-|--1---1-------1-----|----------4--2------|--3-3-5-5--|
|------0-1-3---|--1-----3-1-3---1---|----1-----4----1-3--|--5-5-4-4--|
|--3-3---------|--1---------------3-|--3---3---3---------|--3-3-3-3--|
|--3-----------|--------------------|----------4---------|--5-5------|
|--1-----------|--------------------|--------------------|--3-3-3-3--|


|--1-----------|--3-1---------------|
|--1---------1-|--1---1-------1-----|
|------0-1-3---|--1-----3-1-3---1---|
|--3-3---------|--1---------------3-|
|--3-----------|--------------------|
|--1-----------|--------------------|

|------------------|--1--------|
|------------------|--1--------|
|----1---4-3-1-3-1-|--1--------|
|--3---3-3-2-------|--3--------|
|------------------|--3--------|
|--------3-2-------|--1--------|
            
Submit corrections

comments powered by Disqus
↑ Back to top | George Benson Tabs for This Masquerade. Lyrics for acoustic guitar and electric guitar. Tablatures and chords are parodies/interpretations of the original songs. You may use it for private study, scholarship, research or language learning purposes only