» » »

Nothings Gonna Change My Love For You Tabs (ver.2)

Artists:  A B C D E F G H I J K L M N O P Q R S T U V W X Y Z # 

Nothings Gonna Change My Love For You Tabs (ver.2)

George Benson
Rating:
0/5 (0 votes)

Hard to play? Try these video lessons and learn fast.
                            Nothing Gonna Change My Love For You
                  ************************************
                <>


!!Download this FREE software and hundreds of SOLO guitar arrangements


Nothing Gonna Change My Love For You played in the key of G.

E|--------------------------------|--------------------------------|
B| 0---- 0---- 0 1---- 3-- 1------| 0-------- 0---- 1---- 3-- 0-- 1|
G| 0-- 0---- 0-- 0-- 0 2-- 0---- 0| 0---- 0------ 0 0-- 0 2--------|
D|-- 0---- 0------ 2------ 2-- 2--|---- 0------ 0-- 2 2------------|
A|--------------------------------|--------------------------------|
E| 3-------------- 3---- 3--------| 3-------------- 3--------------|

E|-------------------------- 5-- 3|---------------- 2-- 3 2--------|
B| 3 0 3-- 0---- 3-- 0-- 3--------|------ 0-------- 3---- 3-- 3----|
G| 0 0-------- 0 2------ 2------ 2|-------- 4-------- 2---- 0 0----|
D| 0-- 0---- 0---------- 0---- 0--|-- 5-------- 5 0----------------|
A|--------------------------------|-------------- 6-------- 0 2----|
E| 3------------ 2----------------| 0------------------------------|

E|--------------------------------|--------------------------------|
B| 0 3---------------- 3-------- 1|-- 3-- 5 3---------------- 0----|
G| 0---- 0-- 0------ 0---------- 0|-- 0-- 4 4---- 2---- 2------ 5--|
D| 2-------------- 0------ 0 0 0 2|-- 0-- 5 5---- 4-- 4-- 4--------|
A| 3---------- 0-- 2------------ 0|-- 2-- 3------ 5---------- 5----|
E|------ 3------------------------|--------------------------------|

E|-------------------------- 5-- 3|---------------- 2-- 3 2--------|
B| 3 0 3-- 0---- 3-- 0-- 3--------|------ 0-------- 3---- 3-- 3----|
G| 0 0-------- 0 2------ 2------ 2|-------- 4-------- 2---- 0 0----|
D| 0-- 0---- 0---------- 0---- 0--|-- 5-------- 5 0----------------|
A|--------------------------------|-------------- 6-------- 0 2----|
E| 3------------ 2----------------| 0------------------------------|

E|--------------------------------|--------------------------------|
B| 0 3---------------- 3-------- 1|-- 3-- 5 3----------------------|
G| 0---- 0-- 0------ 0---------- 0|-- 0-- 4 4---- 2---- 2---- 0-- 0|
D| 2-------------- 0------ 0 0 0 2|-- 0-- 5 5---- 4-- 4-- 4--------|
A| 3---------- 0-- 2------------ 0|-- 2-- 3------ 5----------------|
E|------ 3------------------------|--------------------------------|

E|---------- 5-- 3----------------| 8-- 7 8--10---- 7--10----------|
B|---- 7-- 8 5-- 3-- 3-- 3------ 3|10-- 6 6--10---- 8-- 8-- 8------|
G| 9------ 9 5-- 4-- 0-- 0---- 0--| 7-- 7-- 610-- 9---- 7-- 9-- 7--|
D|-- 9----10-------- 0------ 0----|-------- 6-------------- 9-- 6--|
A|--------10 7-- 5-- 2------------| 8-- 7-- 6----------------------|
E| 8-------------------- 3--------|----------10-- 9---- 7 8---- 6--|

E|--------------------------------|---------------- 7-- 5----------|
B| 5-- 7 8------------ 7 8------ 5|---- 7-- 8-- 5-- 5------ 8--10--|
G| 5-- 9 5---- 5-- 7-- 7 9-- 9 9 5|---- 7-- 7-- 5-- 5-- 5-- 9-- 8--|
D|---- 7 5-- 5---- 9-- 7 9--------| 5-- 7-- 6-- 5------ 5-- 8--10--|
A|------ 7------------------------|------------------------ 9-- 8--|
E| 5-- 8----------10-- 7 9--------| 8-- 7-- 6-- 5 5----------------|

E|------------------------------ 5|-- 7-- 7 7----------------------|
B|-------------- 8---- 5---- 5-- 3|-------- 8------ 3 5---- 5---- 5|
G|---- 7------ 5------ 5---- 5-- 4|-- 5-- 5 7-- 7-- 4------ 5-- 5--|
D|--10--10-- 5------ 5------ 4----|---------------- 5------ 5------|
A| 7------ 6------ 5--------------|---------------- 3-- 5-- 7---- 9|
E|---------------------- 4------ 3|---- 5-- 7----------------------|

E|---- 5 5 5---------- 8-- 7-- 5--|-------- 2 3---- 7--------------|
B|1010 8-- 5------ 4-- 8-- 5-- 4--|-- 8 8 8 5 5---- 810-- 5-- 7----|
G| 7 7 5 5---- 5-- 4-- 7-- 4-- 5--|-- 7 5 5 4 4---- 9 7-- 7-- 6----|
D| 7 7------ 5---- 4 4------------|-- 5 7 7---------- 7-- 6-- 5 5--|
A|---- 7-- 5----------------------| 7-- 6 6 5-- 4------------------|
E|------------ 8-- 7-- 6-- 5-- 2--|---------------- 8 7-- 6-- 5----|

E| 3-- 3 3 3 3 3------------------|-- 7 7 7 7----------------------|
B|-- 1 2 2 3 3 4-- 8 7-- 5-- 3----|10------ 8-------- 5 5-- 5------|
G| 2-- 2 2 2 2 2-- 6 5-- 4-- 3----| 7---- 7---- 7-- 7------ 5------|
D|---------------- 8 4-- 3-- 2----| 9-------- 9---- 5---- 5-- 5----|
A|---------------- 6---- 4--------|10-- 9-- 7----------------------|
E| 3---------- 1---- 4------ 2----|------------10-- 8-- 7-- 5-- 3--|

E| 5 5 5 5 5---------- 8-- 7-- 5--|-------- 2 3---- 7--------------|
B| 3 3 5 5 5------ 4-- 8-- 5-- 4--|-- 8 8 8 5 5---- 810-- 5-- 7----|
G| 2 2 5 5-- 5 5-- 4-- 7-- 4-- 5--|-- 7 5 5 4 4---- 9 7-- 7-- 6----|
D|------------ 5-- 4 4------------|-- 5 7 7---------- 7-- 6-- 5 5--|
A|-------- 5----------------------| 7-- 6 6 5-- 4------------------|
E| 2-- 0------ 8-- 7-- 6-- 5-- 2--|---------------- 8 7-- 6-- 5----|

E| 3-- 3-- 3-- 3------------------|--------------------------------|
B| 1-- 1-- 3-- 3-- 8-- 7-- 5-- 7--| 8------ 8---- 8-------- 8---- 8|
G| 2 2-- 2 2 2 2-- 5-- 7-- 2-- 7--| 7---- 7---- 7 6---- 6------ 6 5|
D|---------------- 5-- 7-- 2-- 5--| 5-- 5------ 5---- 5------------|
A|-------------------- 5-- 3------|--------------------------------|
E| 3------ 2------ 0---------- 6--| 6------------ 5----------------|

E|---------------- 3--------------|--------------------------------|
B|-------- 8---- 7 3--------------|--------------------------------|
G|---- 5------ 5-- 2--------------|--------------------------------|
D|-- 6------ 6--------------------|--------------------------------|
A|--------------------------------|--------------------------------|
E| 4-------------- 3--------------|--------------------------------|






If you like this LickByNeck work, feel free to support LickByNeck by:
            
Hard to play? Try these video lessons and learn fast. | Correct




comments powered by Disqus
↑ Back to top | Tablatures and chords are parodies/interpretations of the original songs. You may use it for private study, scholarship, research or language learning purposes only