» » »

George Benson, Nothings Gonna Change My Love For You Tabs (ver.1)

Artists:  A B C D E F G H I J K L M N O P Q R S T U V W X Y Z # 

Nothings Gonna Change My Love For You Tabs (ver.1)

George Benson Tabs
 Rating:
4.3/5 (6 votes)
Nothings Gonna Change My Love For You lessons Tabs too difficult? Try these video lessons and learn fast
1
                ********************************************
********************************************



VERSE1:

.....c#.............G#...............A#m....
If I had to live my life without you near me   
---------------------------------------------|e
---------------------------------4---2-------|b
-----1------1-------1--------1---------------|g
3--4-----3-------3-------3----------------3--|D
---------------------------------------------|A
---------------------------------------------|E

......................F#...
The days would all be empty
----------------------------|e
----1----2-----1------------|b
-------------------1--------|g
3---------------------3-----|D
-------------------------4--|A
----------------------------|E

....D#m..................G#..
The nights would seem so long
------------------------------|e
------------------------------|b
------------------------------|g
----1------3-----4----3---1---|D
4-----------------------------|A
------------------------------|E



VERSE2: ... Tabs and Chords same as VERSE1

With you I see forever oh so clearly
I might have been in love before
But it never felt this strong



BRIDGE1:

....F#...................C#..........
Our dreams are young and we both know
--------------------------------------|e
-----------1---2-----4---2------------|b
1---3-----------------------1----1----|G
--------------------------------------|D
--------------------------------------|A
--------------------------------------|E

........D#m..............C#........
They'll take us where we want to go
--------2----1--2-----4--1----------|e
------------------------------4--2--|b
1-----------------------------------|g
------------------------------------|D
------------------------------------|A
------------------------------------|E

F#..............C#..........
Hold me now ... Touch me now
-----------------------------|e
-----1--2-------------2--2---|b
3---------------1------------|g
-----------------------------|D
-----------------------------|A
-----------------------------|E

D#m.............G#..............
I don't want to live without you
----------------1----------------|e
--1-----2------------4---2---4---|b
3------------3-------------------|g
---------------------------------|D
---------------------------------|A
---------------------------------|E



CHORUS:

C#........................F#..........
Nothing's gonna change my love for you
1-1-------1-1---1----------------------|e
---------------------------------------|b
-----------------------1--1----3---3---|g
---------------------------------------|D
---------------------------------------|A
---------------------------------------|E

....G#...................Fm.................
You ought to know by now how much I love you
----------------------------------2-1--------|e
----4-----4--4----4--4----------------4--2---|b
3--------------------------------------------|g
-------------------------4---3---------------|D
---------------------------------------------|A
---------------------------------------------|E

A#m...........G#............
One thing you can be sure of
--------------1--------------|e
2---1-----2-------4-------4--|b
---------------------3-------|g
-----------------------------|D
-----------------------------|A
-----------------------------|E

F#.................G#.................
I'll never ask for more than your love
---------------------------------------|e
2----2-2---2---1---1-------------------|b
------------------------3----3-1--1----|g
---------------------------------------|D
---------------------------------------|A
---------------------------------------|E


Nothing's gonna change my love for you
You ought to know by now how much I love you


A#m.....................G#....................
The world may change my whole life through but
------------------------1----------------------|e
2---2-----2---1------2--------4------------4---|b
-----------------------------------3-----------|g
-----------------------------------------------|D
-----------------------------------------------|A
-----------------------------------------------|E

F#..............G#.................C#.
Nothing's gonna change my love for you
---------------------------------------|e
2-2-------2-2---2------2-------1-2-4-2-|b
--------------------------3------------|g
---------------------------------------|D
---------------------------------------|A
---------------------------------------|E



VERSE3: ... Tabs and Chords almost same as VERSE1

If the road ahead is not so easy
Our love will lead the way for us
Like a guiding star

I'll be there for you if you should need me
You don't have to change a thing
I love you just the way you are



BRIDGE2: ... Tabs and Chords same as BRIDGE1 

So come with me and share the view
I'll help you see forever too
Hold me now ... Touch me now
I don't want to live without you



Repeat CHORUS X2



CHORUS: ... one key higher

D.........................G...........
Nothing's gonna change my love for you
2-2-------2-2---2----------------------|e
-------------------------------0---0---|b
-----------------------2--2------------|g
---------------------------------------|D
---------------------------------------|A
---------------------------------------|E

....A........................F#m............
You ought to know by now how much I love you
----0-----0--0----0--0------------3-2-0------|e
0----------------------------------------3---|b
-------------------------0-------------------|g
-----------------------------4---------------|D
---------------------------------------------|A
---------------------------------------------|E

Bm............A.............
One thing you can be sure of
--------------2---0-------0--|e
3---2-----3----------0-------|b
-----------------------------|g
-----------------------------|D
-----------------------------|A
-----------------------------|E

G..................A..................
I'll never ask for more than your love
---------------------------------------|e
3----3-3---3---2---2----0----0---------|b
-------------------------------2--2----|g
---------------------------------------|D
---------------------------------------|A
---------------------------------------|E



GUITAR SOLO:

5-68-8S10----------------5S6-5-3-1---5-3-------|e
---------10-10S8-6---3-3-----------------3-6-5-|b
-----------------------------------------------|g
-----------------------------------------------|D
-----------------------------------------------|A
-----------------------------------------------|E



Repeat CHORUS: ... one key higher

D.........................G...........
Nothing's gonna change my love for you
....A........................F#m............
You ought to know by now how much I love you

Bm......................A....................
The world may change my whole life through but
------------------------2-----0------------0---|e
3---3-----3---2------3-------------0-----------|b
-----------------------------------------------|g
-----------------------------------------------|D
-----------------------------------------------|A
-----------------------------------------------|E

G...............A..................D..
Nothing's gonna change my love for you
-----------------------------------0---|e
3-3-------3-3---3------3--0----2-3---3-|b
---------------------------------------|g
---------------------------------------|D
---------------------------------------|A
---------------------------------------|E



********************************************



Cheers.
Rohan.
            
Submit corrections

comments powered by Disqus
↑ Back to top | George Benson Tabs for Nothings Gonna Change My Love For You. Lyrics for acoustic guitar and electric guitar. 1 Tablatures and chords are parodies/interpretations of the original songs. You may use it for private study, scholarship, research or language learning purposes only