» » »

Genuflect, Revelation Tabs (ver.1)

Artists:  A B C D E F G H I J K L M N O P Q R S T U V W X Y Z # 

Revelation Tabs (ver.1)

Genuflect Tabs
 Rating:
4.3/5 (6 votes)
Revelation lessons Tabs too difficult? Try these video lessons and learn fast
1
                
TUNING: CGCFAD

LEGEND: /  slide up
        \  slide down
        h  hammer-on
        p  pull-off
        v  vibrato
        <> harmonic (resting a finger on a fret without pressing down)
        x  palm-mute

NOTE: If there are notes within a passage that are muted, then
      I indicated them with a "...(palm-muted)" below those particular
      notes. If the muted note is an open note, then it is indicated with
      an 'x' instead of '0'.


INTRO

D|-----------------------------------------------------------|
A|-----------------------------------------------------------|
F|-----------------------------------------------------------|
C|-----------------------------------------------------------| x2
G|-----------------------------------------------------------|
C|--2h3-33-6p3-33-6p3-33-5p2-22-2h3-33-6p3-33-6p3-33-5p2-22--|
        ..     ..     ..     ..     ..     ..     ..     ..   (palm-muted)

D|-----------------------------------------------------------|
A|-----------------------------------------------------------|
F|-----------------------------------------------------------|
C|--2h3-33-6p3-33-6p3-33-5p2-22-2h3-33-6p3-33-6p3-33-5p2-22--|
G|--2h3-33-6p3-33-6p3-33-5p2-22-2h3-33-6p3-33-6p3-33-5p2-22--|
C|--2h3-33-6p3-33-6p3-33-5p2-22-2h3-33-6p3-33-6p3-33-5p2-22--|

D|---------------------------------------------------|
A|---------------------------------------------------|
F|---------------------------------------------------|
C|--2h3-33-3----6p3-33-5p2-22-2h3-33-3----3p0-0-0-0--|
G|--2h3-33-3----6p3-33-5p2-22-2h3-33-3----3p0-0-0-0--|
C|--2h3-33-3----6p3-33-5p2-22-2h3-33-3----3p0-0-0-0--|
        ..                        ..                  (palm-muted)

D|-----------------------------------------------------------|
A|-----------------------------------------------------------|
F|-----------------------------------------------------------|
C|--2h3-33-6p3-33-6p3-33-5p2-22-2h3-33-6p3-33-6p3-33-5p2-22--|
G|--2h3-33-6p3-33-6p3-33-5p2-22-2h3-33-6p3-33-6p3-33-5p2-22--|
C|--2h3-33-6p3-33-6p3-33-5p2-22-2h3-33-6p3-33-6p3-33-5p2-22--|

D|---------------------------------------------------|
A|---------------------------------------------------|
F|---------------------------------------------------|
C|--2h3-33-3----6p3-33-5p2-22-2h3-33-3----3p0-0-0-0--|
G|--2h3-33-3----6p3-33-5p2-22-2h3-33-3----3p0-0-0-0--|
C|--2h3-33-3----6p3-33-5p2-22-2h3-33-3----3p0-0-0-0--|
        ..                        ..                  (palm-muted)


VERSE ONE

D|----------------------------------|
A|----------------------------------|
F|----------------------------------|
C|--2-0-x-3-0-x-2--2-0-x-3-0-x-6----| x3
G|--2-0-x-3-0-x-2--2-0-x-3-0-x-6----|
C|--2-0-x-3-0-x-2--2-0-x-3-0-x-6----|

D|----------------------------------|
A|----------------------------------|
F|----------------------------------|
C|--2-0-x-3-0-x-2--2-0-x--5---------|
G|--2-0-x-3-0-x-2--2-0-x------------|
C|--2-0-x-3-0-x-2--2-0-x------------|


CHORUS

D|-----------------------------------------------------------|
A|-----------------------------------------------------------|
F|-----------------------------------------------------------|
C|--2h3-33-6p3-33-6p3-33-5p2-22-2h3-33-6p3-33-6p3-33-5p2-22--|
G|--2h3-33-6p3-33-6p3-33-5p2-22-2h3-33-6p3-33-6p3-33-5p2-22--|
C|--2h3-33-6p3-33-6p3-33-5p2-22-2h3-33-6p3-33-6p3-33-5p2-22--|

D|---------------------------------------------------|
A|---------------------------------------------------|
F|---------------------------------------------------|
C|--2h3-33-3----6p3-33-5p2-22-2h3-33-3----3p0-0-0-0--|
G|--2h3-33-3----6p3-33-5p2-22-2h3-33-3----3p0-0-0-0--|
C|--2h3-33-3----6p3-33-5p2-22-2h3-33-3----3p0-0-0-0--|
        ..                        ..                  (palm-muted)


FILL

D|------------------|
A|------------------|
F|------------------|
C|--2-0----2-0------|
G|--2-0----2-0------|
C|--2-0----2-0------|


VERSE TWO

D|-------------------------------------------------------|
A|-------------------------------------------------------|
F|-------------------------------------------------------|
C|--0h3-2-0----0h3-2-0----0h3-2-0----0h3-2-0-x-----------|
G|--0h3-2-0----0h3-2-0----0h3-2-0----0h3-2-0-x-----------|
C|--0h3-2-0----0h3-2-0----0h3-2-0----0h3-2-0-x-6v-6v-6v--|

D|-------------------------------------------------------------|
A|-------------------------------------------------------------|
F|-------------------------------------------------------------|
C|------------------------------------------------------5------|
G|-------------------------------------------------------------|
C|--0-2v-0----0h3v-2v-0----0h3v-2v-0--0-0--0h3v-2-0-x----------|


CHORUS

D|-----------------------------------------------------------|
A|-----------------------------------------------------------|
F|-----------------------------------------------------------|
C|--2h3-33-6p3-33-6p3-33-5p2-22-2h3-33-6p3-33-6p3-33-5p2-22--|
G|--2h3-33-6p3-33-6p3-33-5p2-22-2h3-33-6p3-33-6p3-33-5p2-22--|
C|--2h3-33-6p3-33-6p3-33-5p2-22-2h3-33-6p3-33-6p3-33-5p2-22--|

D|---------------------------------------------------|
A|---------------------------------------------------|
F|---------------------------------------------------|
C|--2h3-33-3----6p3-33-5p2-22-2h3-33-3----3p0-0-0-0--|
G|--2h3-33-3----6p3-33-5p2-22-2h3-33-3----3p0-0-0-0--|
C|--2h3-33-3----6p3-33-5p2-22-2h3-33-3----3p0-0-0-0--|
        ..                        ..                  (palm-muted)

D|-----------------------------------------------------------|
A|-----------------------------------------------------------|
F|-----------------------------------------------------------|
C|--2h3-33-6p3-33-6p3-33-5p2-22-2h3-33-6p3-33-6p3-33-5p2-22--|
G|--2h3-33-6p3-33-6p3-33-5p2-22-2h3-33-6p3-33-6p3-33-5p2-22--|
C|--2h3-33-6p3-33-6p3-33-5p2-22-2h3-33-6p3-33-6p3-33-5p2-22--|

D|---------------------------------------------------|
A|---------------------------------------------------|
F|---------------------------------------------------|
C|--2h3-33-3----6p3-33-5p2-22-2h3-33-3----3p0-0-0-0--|
G|--2h3-33-3----6p3-33-5p2-22-2h3-33-3----3p0-0-0-0--|
C|--2h3-33-3----6p3-33-5p2-22-2h3-33-3----3p0-0-0-0--|
        ..                        ..                  (palm-muted)


BREAKDOWN

D|----------------------|
A|----------------------|
F|----------------------|
C|----------------------| x6
G|----------------------|
C|--0-0-<4>-0-2v-0-<4>--|

D|-------------------------|
A|-------------------------|
F|-------------------------|
C|--0-0-6-0-7p6-0h3p0-0h3--| x3
G|--0-0-6-0-7p6-0h3p0-0h3--|
C|--0-0-6-0-7p6-0h3p0-0h3--|

D|-------------------------------------|
A|-------------------------------------|
F|-------------------------------------|
C|--0-0-6-0-2--3--6--7-7-7-7--6-6-6-6--|
G|--0-0-6-0-2--3--6--7-7-7-7--6-6-6-6--|
C|--0-0-6-0-2--3--6--7-7-7-7--6-6-6-6--|

D|-------------------------------------|
A|-------------------------------------|
F|-------------------------------------|
C|--0--0-2-0-3-0-2-0-0--0-2-0-3-0-2-0--|
G|--0--0-2-0-3-0-2-0-0--0-2-0-3-0-2-0--|
C|--0--0-2-0-3-0-2-0-0--0-2-0-3-0-2-0--|

D|-------------------------------------|
A|-------------------------------------|
F|-------------------------------------|
C|--0--0-2-0-3-0-2-0-0--0-2-0-3-0-2----|
G|--0--0-2-0-3-0-2-0-0--0-2-0-3-0-2----|
C|--0--0-2-0-3-0-2-0-0--0-2-0-3-0-2----|


BRIDGE

D|-----------------------------------------------------------|
A|-----------------------------------------------------------|
F|-----------------------------------------------------------|
C|-----------------------------------------------------------| x2
G|-----------------------------------------------------------|
C|--2h3-33-6p3-33-6p3-33-5p2-22-2h3-33-6p3-33-6p3-33-5p2-22--|
        ..     ..     ..     ..     ..     ..     ..     ..   (palm-muted)


CHORUS & OUTRO

D|-----------------------------------------------------------|
A|-----------------------------------------------------------|
F|-----------------------------------------------------------|
C|--2h3-33-6p3-33-6p3-33-5p2-22-2h3-33-6p3-33-6p3-33-5p2-22--|
G|--2h3-33-6p3-33-6p3-33-5p2-22-2h3-33-6p3-33-6p3-33-5p2-22--|
C|--2h3-33-6p3-33-6p3-33-5p2-22-2h3-33-6p3-33-6p3-33-5p2-22--|

D|---------------------------------------------------|
A|---------------------------------------------------|
F|---------------------------------------------------|
C|--2h3-33-3----6p3-33-5p2-22-2h3-33-3----3p0-0-0-0--|
G|--2h3-33-3----6p3-33-5p2-22-2h3-33-3----3p0-0-0-0--|
C|--2h3-33-3----6p3-33-5p2-22-2h3-33-3----3p0-0-0-0--|
        ..                        ..                  (palm-muted)

D|-----------------------------------------------------------|
A|-----------------------------------------------------------|
F|-----------------------------------------------------------|
C|--2h3-33-6p3-33-6p3-33-5p2-22-2h3-33-6p3-33-6p3-33-5p2-22--|
G|--2h3-33-6p3-33-6p3-33-5p2-22-2h3-33-6p3-33-6p3-33-5p2-22--|
C|--2h3-33-6p3-33-6p3-33-5p2-22-2h3-33-6p3-33-6p3-33-5p2-22--|
        ..     ..     ..     ..     ..     ..     ..     ..   (palm-muted)

D|------------------------------------------------|
A|------------------------------------------------|
F|------------------------------------------------|
C|--2h3-33-3-33-6p3-33-5p2-22-2h3-33-3-33-0---0---|
G|--2h3-33-3-33-6p3-33-5p2-22-2h3-33-3-33-0---0---|
C|--2h3-33-3-33-6p3-33-5p2-22-2h3-33-3-33-0---0---|
        ..   ..     ..     ..     ..   ..          (palm-muted)



So there you have it, Genuflect's "Revelation". Great song, and not that
hard to play. If you have any questions regarding this tab or any other of
Enjoy!

P.S. Don't forget to buy Genuflect's new album! I know I will!
            
Submit corrections

comments powered by Disqus
↑ Back to top | Genuflect Tabs for Revelation. Lyrics for acoustic guitar and electric guitar. 1 Tablatures and chords are parodies/interpretations of the original songs. You may use it for private study, scholarship, research or language learning purposes only