>
 >
Long Way Home

Long Way Home Guitar Tabs

Genuflect - Long Way Home chords, tabs, tablatures, lyrics

Guitar lessons | Add/correct | Request | Top 50 tabs Artists:  A B C D E F G H I J K L M N O P Q R S T U V W X Y Z 0-9

Long Way Home Guitar Tabs – Genuflect

CD, Sheet music, Poster

Do you like Long Way Home? Share with your friends now
Tabs


TUNING: CGCFAD

LEGEND: /  slide up
        \  slide down
        h  hammer-on
        p  pull-off
        v  vibrato
        b  bend
        x  muted string


NOTE: I've had a go at tabbing the solo as best I could.
      If I'm able to tab it more accurately later then
      I'll update the tab.


INTRO (Clean, strumming)

D|-----------------------------------|
A|-----------------------------------|
F|--7--7-77-7--7-77-5--5-55-5--5-55--|
C|--0--0-00-0--0-00-0--0-00-0--0-00--|
G|-----------------------------------|
C|-----------------------------------|

D|--------------------------------------|
A|--------------------------------------|
F|--7--7-77-7--7-77-5--5-55-6p5-5-3--3--|
C|--0--0-00-0--0-00-0--0-00-0-0-0-0--0--|
G|--------------------------------------|
C|--------------------------------------|

D|------------------------------------|
A|---------------------------8--8-88--|
F|--7--7-77-7---7-77-5--5-55-5--5-55--|
C|--0--0-00-0---0-00-0--0-00-0--0-00--|
G|------------------------------------|
C|------------------------------------|

D|-----------------------------------------------------------------|
A|--10---10--10-10--10---10--10-10--10---8---8--8---8----8---8--8--|
F|--7----7---7--7---7----7---7--7---7----5---5--5---5----5---5--5--|
C|--0----0---0--0---0----0---0--0---0----0---0--0---0----0---0--0--|
G|-----------------------------------------------------------------|
C|-----------------------------------------------------------------|


CHORUS (Distortion)

D|---------------------------------|
A|---------------------------------|
F|---------------------------------|
C|--3--5--7--8--0------------------| x3
G|--3--5--7--8--0--8p7p0-7--7h8p0--|
C|--3--5--7--8--0------------------|

D|--------------|
A|--------------|
F|--------------|
C|--3--5--7--8--|
G|--3--5--7--8--|
C|--3--5--7--8--|


VERSE (Distortion)

D|------------------------------------------------|
A|------------------------------------------------|
F|------------------------------------------------|
C|------------------------------------------------|
G|-------10p8-7-0h7p0-8-8-----8------7---7h8p7h8--|
C|--0--0------------------7-7----5-5--------------|

D|----------------------------------------------------|
A|----------------------------------------------------|
F|----------------------------------------------------|
C|-------------------------------------------8p7h8p7--|
G|-------10p8-7-0h7p0-8-8-------8--------7------------|
C|--0--0------------------8p7-7----7p5-5--------------|

D|------------------------------------------------|
A|------------------------------------------------|
F|------------------------------------------------|
C|------------------------------------------------|
G|-------10p8-7-0h7p0-8-8-----8------7---7h8p7h8--|
C|--0--0------------------7-7----5-5--------------|

D|--------------------------------------------------------|
A|--------------------------------------------------------|
F|--------------------------------------------------------|
C|-------------------------------------------2h3-2h3-0----|
G|-------10p8-7-0h7p0-8-8-------8--------7---2h3-2h3-0----|
C|--0--0------------------8p7-7----7p5-5-----2h3-2h3-0----|


CHORUS (Distortion)

D|---------------------------------|
A|---------------------------------|
F|---------------------------------|
C|--3--5--7--8--0------------------| x3
G|--3--5--7--8--0--8p7p0-7--7h8p0--|
C|--3--5--7--8--0------------------|

D|--------------|
A|--------------|
F|--------------|
C|--3--5--7--8--|
G|--3--5--7--8--|
C|--3--5--7--8--|


VERSE (Distortion)

D|------------------------------------------------|
A|------------------------------------------------|
F|------------------------------------------------|
C|------------------------------------------------|
G|-------10p8-7-0h7p0-8-8-----8------7---7h8p7h8--|
C|--0--0------------------7-7----5-5--------------|

D|----------------------------------------------------|
A|----------------------------------------------------|
F|----------------------------------------------------|
C|-------------------------------------------8p7h8p7--|
G|-------10p8-7-0h7p0-8-8-------8--------7------------|
C|--0--0------------------8p7-7----7p5-5--------------|

D|------------------------------------------------|
A|------------------------------------------------|
F|------------------------------------------------|
C|------------------------------------------------|
G|-------10p8-7-0h7p0-8-8-----8------7---7h8p7h8--|
C|--0--0------------------7-7----5-5--------------|

D|------------------------------------------|
A|------------------------------------------|
F|------------------------------------------|
C|------------------------------------------|
G|-------10p8-7-0h7p0-8-8-------8--------7--|
C|--0--0------------------8p7-7----7p5-5----|


BRIDGE (Distortion)

D|---------------------------------|
A|---------------------------------|
F|---------------------------------|
C|--8--8--8-8--5-7-0--0--0-0--3-0--|
G|--8--8--8-8--5-7-0--0--0-0--3-0--|
C|--8--8--8-8--5-7-0--0--0-0--3-0--|

D|---------------------------------|
A|---------------------------------|
F|---------------------------------|
C|--8--8--8-8--5-7-0--0--0-3-------|
G|--8--8--8-8--5-7-0--0--0-3-------|
C|--8--8--8-8--5-7-0--0--0-3-------|

D|---------------------------------|
A|---------------------------------|
F|---------------------------------|
C|--8--8--8-8--5-7-0--0--0-0--3-0--|
G|--8--8--8-8--5-7-0--0--0-0--3-0--|
C|--8--8--8-8--5-7-0--0--0-0--3-0--|

D|------------------|
A|------------------|
F|------------------|
C|--8--8--8-8--5-7--|
G|--8--8--8-8--5-7--|
C|--8--8--8-8--5-7--|


BREAKDOWN (Distortion, palm-muted)

D|-----------------------------------------------|
A|-----------------------------------------------|
F|-----------------------------------------------|
C|-----------------------------------------------|
G|-----------------------------------------------|
C|--0-0-0-0-0-0-3-0--0--0-0-0-0-0-0-0-5-0--0--0--|
                ^ ^  ^                ^ ^  ^     (NOT palm-muted)
D|-------------------------------------------------|
A|-------------------------------------------------|
F|-------------------------------------------------|
C|-------------------------------------------------|
G|-------------------------------------------------|
C|--0-0-0-0-0-0-3-0--0--0-0-0-0-0-0-0-0-0-0-0-0-0--|
                ^ ^  ^                             (NOT palm-muted)


SOLO (Part I)

D|----------------------------------------------------------|
A|--12h13p12--12-----13--13-15h17p15--13--15--18--17--15----|
F|----------12--12/14--14-----------------------------------|
C|----------------------------------------------------------|
G|----------------------------------------------------------|
C|----------------------------------------------------------|

D|-----------------------------------------------------------|
A|--12h13p12--12--18p17p15h17p15--------------------17---17--|
F|----------12--12--------------12-12h14-14-14-14h15--14h----|
C|-----------------------------------------------------------|
G|-----------------------------------------------------------|
C|-----------------------------------------------------------|

D|----------------------------------------------------------------------|
A|--15-15-15-15-15-15---------------------------------------------------|
F|--14-14-14-14-14-14-15-15-15-15-15-16-10-10-10-10-10-10-9-9-9-9-9-9/--|
C|--0--0--0--0--0--0--0--0--0--0--0--0--0--0--0--0--0--0--0-0-0-0-0-0/--|
G|----------------------------------------------------------------------|
C|----------------------------------------------------------------------|

D|-----------------------------------------|
A|----17--17--17--17--17--17--17--17-------|
F|--14--14--14--14--14--14--14--14--14-14--|
C|--0---0---0---0---0---0---0---0---0--0---|
G|-----------------------------------------|
C|-----------------------------------------|

D|---------------------------------------|
A|--------------------18-18-18-18-18-18--|
F|--15-15-15-15-15-15-17-17-17-17-17-17--|
C|--0--0--0--0--0--0--0--0--0--0--0--0---|
G|---------------------------------------|
C|---------------------------------------|


SOLO (Part II)

D|----------------------------------------------------------|
A|----------------------------------------------------------|
F|--7----10h12----7----10h12----7----10h12----7----10h12----|
C|----------------------------------------------------------|
G|----------------------------------------------------------|
C|----------------------------------------------------------|

D|----------------------------------------------------------|
A|----------------------------------------------------------|
F|--3------7-----2-------12--10--9--9-----10-----14---------|
C|----------------------------------------------------------|
G|----------------------------------------------------------|
C|----------------------------------------------------------|
                         ^   ^   ^  ^     ^      ^     (tremolo picking)

(Rhythm Guitar during Part II of the Solo)

D|---------------------------------|
A|---------------------------------|
F|---------------------------------|
C|--8--8--8-8--5-7-0--0--0-0--3-0--| x4
G|--8--8--8-8--5-7-0--0--0-0--3-0--|
C|--8--8--8-8--5-7-0--0--0-0--3-0--|


BRIDGE (Distortion)

D|---------------------------------|
A|---------------------------------|
F|---------------------------------|
C|--8--8--8-8--5-7-0--0--0-0--3-0--|
G|--8--8--8-8--5-7-0--0--0-0--3-0--|
C|--8--8--8-8--5-7-0--0--0-0--3-0--|

D|---------------------------------|
A|---------------------------------|
F|---------------------------------|
C|--8--8--8-8--5-7-0--0--0-3-------|
G|--8--8--8-8--5-7-0--0--0-3-------|
C|--8--8--8-8--5-7-0--0--0-3-------|

D|---------------------------------|
A|---------------------------------|
F|---------------------------------|
C|--8--8--8-8--5-7-0--0--0-0--3-0--|
G|--8--8--8-8--5-7-0--0--0-0--3-0--|
C|--8--8--8-8--5-7-0--0--0-0--3-0--|

D|------------------|
A|------------------|
F|------------------|
C|--8--8--8-8--5-7--|
G|--8--8--8-8--5-7--|
C|--8--8--8-8--5-7--|


OUTRO (Distortion)

D|---------------------------------------|
A|---------------------------------------|
F|---------------------------------------|
C|---------------------------------------| x4
G|---------------------------------------|
C|--0--3p2-0h2--2h3p0-0--3p2p0-2--3-0----|


D|---------------------------------------|
A|---------------------------------------|
F|---------------------------------------|
C|--0--3p2-0h2--2h3p0-0--3p2p0-2--3-0----| (Repeat and fade out)
G|--0--3p2-0h2--2h3p0-0--3p2p0-2--3-0----|
C|--0--3p2-0h2--2h3p0-0--3p2p0-2--3-0----|


___________________________________________________________________
And that's my tab for 'Long Way Home' by Genuflect. If you have any





Comments


Popular Genuflect tabs & chords
Bullet Tabs
Dark As Night Tabs
Dark As Night Intro Tabs
Dead Right Tabs
Epinephrine Tabs
Head Hearse Tabs
Revelation Tabs


Song lyrics



↑ Back to top | Tablatures and chords are parodies/interpretations of the original songs. You may use it for private study, scholarship, research or language learning purposes only
© 2014 AZChords.com Contact us | Privacy policy | DMCA | Add/correct tabs | Request tabs | Top 50 tabs