>
 >
Head Hearse

Head Hearse Guitar Tabs

Genuflect - Head Hearse chords, tabs, tablatures, lyrics

Guitar lessons | Add/correct | Request | Top 50 tabs Artists:  A B C D E F G H I J K L M N O P Q R S T U V W X Y Z 0-9

Head Hearse Guitar Tabs – Genuflect

CD, Sheet music, Poster

Do you like Head Hearse? Share with your friends now
Tabs

TUNING: CGCFAD

LEGEND: /  slide up
        \  slide down
        h  hammer-on
        p  pull-off
        v  vibrato
        b  bend
        x  palm-mute


INTRO (Clean, lightly muted)

D|--6--------5--------6--------5--------|
A|--3--------3--------3--------3--------|
F|--------------------------------------|
C|--------------------------------------| x2
G|--------------------------------------|
C|--------------------------------------|

(Distortion, Palm-muted)
D|---------------------------|
A|---------------------------|
F|---------------------------|
C|---------------------------| x4
G|---------------------------|
C|--4-3-0----4-3-0----4-3-0--|
        ^        ^        ^    (notes not muted)


CHORUS

D|-----------------------------------------------------|
A|-----------------------------------------------------|
F|-----------------------------------------------------|
C|--------------------------4p3-0-0--7p6-0-0--4p3-0----| x2
G|--------------------------4p3-0-0--7p6-0-0--4p3-0----|
C|--------------------------4p3-0-0--7p6-0-0--4p3-0----|

D|-----------------------------------------------------|
A|-----------------------------------------------------|
F|-----------------------------------------------------|
C|----5v--------3v----------4p3-0-0--7p6-0-0--4p3-0----|
G|--------------------------4p3-0-0--7p6-0-0--4p3-0----|
C|--------------------------4p3-0-0--7p6-0-0--4p3-0----|

D|-----------------------------------|
A|-----------------------------------|
F|-----------------------------------|
C|--------------------------x-x-x-x--|
G|--------------------------x-x-x-x--|
C|--------------------------x-x-x-x--|

D|-----------------------------------------------------|
A|-----------------------------------------------------|
F|-----------------------------------------------------|
C|--4p3-0-0--7p6-0-0--4p3-0--4p3-0-0--7p6-0-0--4p3-0---| x2
G|--4p3-0-0--7p6-0-0--4p3-0--4p3-0-0--7p6-0-0--4p3-0---|
C|--4p3-0-0--7p6-0-0--4p3-0--4p3-0-0--7p6-0-0--4p3-0---|


VERSE ONE

(Wah effect)
D|--------------------------------------------------------|
A|--------------------------------------------------------|
F|--------------------------------------------------------|
C|--------------------------------------------------------| x2
G|------5--------5--------5----4-3------4-3------4-3------|
C|--4-3------4-3------4-3----------0--------0--------0----|

(Palm-muted)
D|---------------------------|
A|---------------------------|
F|---------------------------|
C|---------------------------| x4
G|---------------------------|
C|--4-3-0----4-3-0----4-3-0--|
        ^        ^        ^    (notes not muted)

CHORUS

D|-----------------------------------------------------|
A|-----------------------------------------------------|
F|-----------------------------------------------------|
C|--------------------------4p3-0-0--7p6-0-0--4p3-0----| x2
G|--------------------------4p3-0-0--7p6-0-0--4p3-0----|
C|--------------------------4p3-0-0--7p6-0-0--4p3-0----|

D|-----------------------------------------------------|
A|------6----------------------------------------------|
F|----5------------------------------------------------|
C|--------------4v----------4p3-0-0--7p6-0-0--4p3-0----|
G|--------------------------4p3-0-0--7p6-0-0--4p3-0----|
C|--------------------------4p3-0-0--7p6-0-0--4p3-0----|

D|-----------------------------------|
A|-----------------------------------|
F|-----------------------------------|
C|--------------------------x-x-x-x--|
G|--------------------------x-x-x-x--|
C|--------------------------x-x-x-x--|

D|-------------------------------------------------|
A|-------------------------------------------------|
F|-------------------------------------------------|
C|--4p3-0-0--7p6-0-0--4p3-0--4p3-0-0--7p6-x-x-x-x--|
G|--4p3-0-0--7p6-0-0--4p3-0--4p3-0-0--7p6-x-x-x-x--|
C|--4p3-0-0--7p6-0-0--4p3-0--4p3-0-0--7p6-x-x-x-x--|

D|-------------------------------------------------|
A|-------------------------------------------------|
F|-------------------------------------------------|
C|--4p3-0-0--7p6-0-0--4p3-0--4p3-0-0--7p6-0--------|
G|--4p3-0-0--7p6-0-0--4p3-0--4p3-0-0--7p6-0--------|
C|--4p3-0-0--7p6-0-0--4p3-0--4p3-0-0--7p6-0--------|


BRIDGE

D|------------------------------|
A|------------------------------|
F|------------------------------|
C|--6p5-0h2-0-0--6p5-0h2-0h2h3--| x3
G|--6p5-0h2-0-0--6p5-0h2-0h2h3--|
C|--6p5-0h2-0-0--6p5-0h2-0h2h3--|

D|--------------|
A|--------------|
F|--------------|
C|--3--3--5--6--|
G|--3--3--5--6--|
C|--3--3--5--6--|

D|------------------------------|
A|------------------------------|
F|------------------------------|
C|--6p5-0h2-0-0--6p5-0h2-0h2h3--| x3
G|--6p5-0h2-0-0--6p5-0h2-0h2h3--|
C|--6p5-0h2-0-0--6p5-0h2-0h2h3--|

D|----------------------------|
A|----------------------------|
F|----------------------------|
C|--3--3--5--6--6--6--5--3----|
G|--3--3--5--6--6--6--5--3----|
C|--3--3--5--6--6--6--5--3----|


INTERLUDE (Clean)

D|--------------------------------------|
A|--------------------------------------|
F|--------------------------------------|
C|--------------------------------------|
G|--------------------------------------|
C|--------------------------------------|

D|--6--------5--------6--------5--------|
A|--3--------3--------3--------3--------|
F|--------------------------------------|
C|--------------------------------------|
G|--------------------------------------|
C|--------------------------------------|

D|----6---6--6--6---6--6--5---5--5--5---5--5--|
A|--6---6---6-----6---6-3---3---3-----3---3---|
F|--------------------------------------------|
C|--------------------------------------------| x2
G|--------------------------------------------|
C|--------------------------------------------|

D|--6-6-66-66-6-666\5-5-5-55-55-5-55/--|
A|--6-6-66-66-6-666\3-3-3-33-33-3-33/--|
F|-------------------------------------|
C|-------------------------------------| x2
G|-------------------------------------|
C|-------------------------------------|


BREAKDOWN

D|--------------------------------------|
A|--------------------------------------|
F|--------------------------------------|
C|--0-00-0-00-7-8-5-5-5-55-7-3-5-2-3-5--|
G|--0-00-0-00-7-8-5-5-5-55-7-3-5-2-3-5--|
C|--0-00-0-00-7-8-5-5-5-55-7-3-5-2-3-5--|

D|-----------------------------------------------------------|
A|-----------------------------------------------------------|
F|-----------------------------------------------------------|
C|--0--00-x-0--00-x------------------------------------------|
G|--0--00-x-0--00-x------------------------------------------|
C|--0--00-x-0--00-x-8p0-h8p0-h8p0--0h10p0-h10p0-h10p0-h10b---|

D|--------------------------------------|
A|--------------------------------------|
F|--------------------------------------|
C|--0-00-0-00-8-7-5-5-5-55-7-3-5-2-3-5--|
G|--0-00-0-00-8-7-5-5-5-55-7-3-5-2-3-5--|
C|--0-00-0-00-8-7-5-5-5-55-7-3-5-2-3-5--|

D|-----------------------------------------------------------|
A|-----------------------------------------------------------|
F|-----------------------------------------------------------|
C|--0--00-x-0--00-x------------------------------------------|
G|--0--00-x-0--00-x------------------------------------------|
C|--0--00-x-0--00-x-8p0-h8p0-h8p0--0h10p0-h10p0-h10p0-h10b---|


CHORUS

D|-----------------------------------------------------|
A|-----------------------------------------------------|
F|-----------------------------------------------------|
C|--------------------------4p3-0-0--7p6-0-0--4p3-0----| x2
G|--------------------------4p3-0-0--7p6-0-0--4p3-0----|
C|--------------------------4p3-0-0--7p6-0-0--4p3-0----|

D|-----------------------------------------------------|
A|-----------------------------------------------------|
F|-----------------------------------------------------|
C|----5v--------3v----------4p3-0-0--7p6-0-0--4p3-0----|
G|--------------------------4p3-0-0--7p6-0-0--4p3-0----|
C|--------------------------4p3-0-0--7p6-0-0--4p3-0----|

D|-----------------------------------|
A|-----------------------------------|
F|-----------------------------------|
C|--------------------------x-x-x-x--|
G|--------------------------x-x-x-x--|
C|--------------------------x-x-x-x--|


BRIDGE

D|------------------------------|
A|------------------------------|
F|------------------------------|
C|--6p5-0h2-0-0--6p5-0h2-0h2h3--| x3
G|--6p5-0h2-0-0--6p5-0h2-0h2h3--|
C|--6p5-0h2-0-0--6p5-0h2-0h2h3--|

D|--------------|
A|--------------|
F|--------------|
C|--3--3--5--6--|
G|--3--3--5--6--|
C|--3--3--5--6--|

D|------------------------------|
A|------------------------------|
F|------------------------------|
C|--6p5-0h2-0-0--6p5-0h2-0h2h3--| x3
G|--6p5-0h2-0-0--6p5-0h2-0h2h3--|
C|--6p5-0h2-0-0--6p5-0h2-0h2h3--|

D|----------------------------|
A|----------------------------|
F|----------------------------|
C|--3--3--5--6--6--6--5--3----|
G|--3--3--5--6--6--6--5--3----|
C|--3--3--5--6--6--6--5--3----|


ENDING

D|--------------------------|
A|--------------------------|
F|--------------------------|
C|--4p3-0-0--7p6-0-0-0-0----|
G|--4p3-0-0--7p6-0-0-0-0----|
C|--4p3-0-0--7p6-0-0-0-0----|

And that's how I play Head Hearse by Genuflect. If you have any questions of requests 

Genuflect FTW~





Comments


Popular Genuflect tabs & chords
Bullet Tabs
Dark As Night Tabs
Dark As Night Intro Tabs
Dead Right Tabs
Epinephrine Tabs
Long Way Home Tabs
Revelation Tabs


Song lyrics



↑ Back to top | Tablatures and chords are parodies/interpretations of the original songs. You may use it for private study, scholarship, research or language learning purposes only
© 2014 AZChords.com Contact us | Privacy policy | DMCA | Add/correct tabs | Request tabs | Top 50 tabs