» » »

Epinephrine Tabs (ver.1)

Artists:  A B C D E F G H I J K L M N O P Q R S T U V W X Y Z # 

Epinephrine Tabs (ver.1)

Genuflect
Rating:
5/5 (3 votes)

Hard to play? Try these video lessons and learn fast.
                
TUNING: CGCFAD

Genuflect is a bloody awesome band (one of my favourites up there with
Reveille) and I understand that tabs for their songs are in high demand so
I figured I'd share how I play them. This song has a difficult structure to
follow, as it has no obvious chorus or anything, so I've numbered the
different parts in the order you hear them.
The tab sounds 100% to me, so good luck friends.

NOTE: b = bend
      h = hammer on
      p = pull off


RIFF ONE

D|-------------------------------------------------------|
A|-------------------------------------------------------|
F|-------------------------------------------------------|
C|-------------------------------------------------------|
G|-------------------------------------------------------|
C|--0-2-3-5-7--3--6--2--5--3--0-2-3-5-7--3--6--2--5--1b--|

D|-------------------------------------------------------|
A|-------------------------------------------------------|
F|-------------------------------------------------------|
C|-------------------------------------------------------| x2
G|-------------------------------------------------------|
C|--0-2-3-5-7--3--6--2--5--3--0-2-3-5-7--3--6--2b--------|

RIFF TWO

D|---------------------------------------------------------|
A|---------------------------------------------------------|
F|---------------------------------------------------------|
C|---------------------------------------------------------| x4
G|---------------------------------------------------------|
C|--3p0-0--2p0-0--3p0-0--2p0-2--3p0-0--2p0-0--6-5p0-5p0-3--|

D|---------------------------------------------------------|
A|---------------------------------------------------------|
F|---------------------------------------------------------|
C|---------------------------------------------------------| x2
G|--3p0-0--2p0-0--3p0-0--2p0-2--3p0-0--2p0-0--6-5p0-5p0-3--|
C|--3p0-0--2p0-0--3p0-0--2p0-2--3p0-0--2p0-0--6-5p0-5p0-3--|


RIFF THREE (palm muted)

D|--------------------------------------------------------------------|
A|--------------------------------------------------------------------|
F|--------------------------------------------------------------------|
C|--------------------------------------------------------------------|
G|--------------------------------------------------------------------|
C|--0-2-3-5-7-7-3-3-6-6-2-2-5-5-3-3--0-2-3-5-7-7-3-3-6-6-2-2-5-5-1-1--|

D|--------------------------------------------------------------------|
A|--------------------------------------------------------------------|
F|--------------------------------------------------------------------|
C|--------------------------------------------------------------------|
G|--------------------------------------------------------------------|
C|--0-2-3-5-7-7-3-3-6-6-2-2-5-5-3-3--0-2-3-5-7-7-3-3-6-6-2b-----2b----|
                                                         ..........not muted

D|--------------------------------------------------------------------|
A|--------------------------------------------------------------------|
F|--------------------------------------------------------------------|
C|--------------------------------------------------------------------|
G|--------------------------------------------------------------------|
C|--0-2-3-5-7-7-3-3-6-6-2-2-5-5-3-3--0-2-3-5-7-7-3-3-6-6-2-2-5-5-1-1--|

D|--------------------------------------------------------------------|
A|--------------------------------------------------------------------|
F|--------------------------------------------------------------------|
C|--------------------------------------------------------------------|
G|--------------------------------------------------------------------|
C|--0-2-3-5-7-7-3-3-6-6-2-2-5-5-3-3--0-2-3-5-7-7-3-3-6-6-2------------|
                                             ......................not muted


RIFF FOUR

D|------------------------------------------------|
A|------------------------------------------------|
F|------------------------------------------------|
C|------------------------------------------------|
G|--0-2-3-5-7--3--6--2b----0-2-3-5-7--3--6--2b----|
C|--0-2-3-5-7--3--6--2b----0-2-3-5-7--3--6--2b----|

D|------------------------------------------------|
A|------------------------------------------------|
F|------------------------------------------------|
C|------------------------------------------------|
G|--0-2-3-5-7--3--6--2b----0-2-3-5-7--3--6--------|
C|--0-2-3-5-7--3--6--2b----0-2-3-5-7--3--6--------|


RIFF FIVE

D|---------------------------------------------------------|
A|---------------------------------------------------------|
F|---------------------------------------------------------|
C|--3p0-00-2p0-00-3p0-00-2p0-2--3p0-00-2p0-00-6-5p0-5p0-3--| x2
G|--3p0-00-2p0-00-3p0-00-2p0-2--3p0-00-2p0-00-6-5p0-5p0-3--|
C|--3p0-00-2p0-00-3p0-00-2p0-2--3p0-00-2p0-00-6-5p0-5p0-3--|

D|---------------------------------------------------------|
A|---------------------------------------------------------|
F|---------------------------------------------------------|
C|--3p0-0--2p0-0--3p0-0--2p0-2--3p0-0--2p0-0--6-5p0-5p0-3--|
G|--3p0-0--2p0-0--3p0-0--2p0-2--3p0-0--2p0-0--6-5p0-5p0-3--|
C|--3p0-0--2p0-0--3p0-0--2p0-2--3p0-0--2p0-0--6-5p0-5p0-3--|

D|---------------------------------------------------------|
A|---------------------------------------------------------|
F|---------------------------------------------------------|
C|--3p0-00--------2p0-00------0-2p0-00-2p0-00-6-5p0-5p0-3--|
G|--3p0-00--------2p0-00------0-2p0-00-2p0-00-6-5p0-5p0-3--|
C|--3p0-00--------2p0-00------0-2p0-00-2p0-00-6-5p0-5p0-3--|


RIFF SIX

D|-------------------------------------------------------------------|
A|-------------------------------------------------------------------|
F|-------------------------------------------------------------------|
C|-------------------------------------------------------------------|
G|-------------------------------------------------------------------|
C|--3p0-2p0-3p0-0-3p0-2p0-5h6p0-5h6-3p0-2p0-3p0-0-3p0-2p0-5h6--------|

D|--------------------------------------------------------------------|
A|--------------------------------------------------------------------|
F|--------------------------------------------------------------------|
C|--3p0-2p0-3p0-0-3p0-2p0-5h6p0-5h6-3p0-2p0-3p0-0-3p0-2p0-5h6p0-5h6---|
G|--3p0-2p0-3p0-0-3p0-2p0-5h6p0-5h6-3p0-2p0-3p0-0-3p0-2p0-5h6p0-5h6---|
C|--3p0-2p0-3p0-0-3p0-2p0-5h6p0-5h6-3p0-2p0-3p0-0-3p0-2p0-5h6p0-5h6---|


RIFF SEVEN

D|---------------------------------------------------------|
A|---------------------------------------------------------|
F|---------------------------------------------------------|
C|-----------------------2p0-2----------------6-5p0-5p0-3--|
G|-----------------------2p0-2----------------6-5p0-5p0-3--|
C|--3p0-00-2p0-00-3p0-00-2p0-2--3p0-00-2p0-00-6-5p0-5p0-3--|

D|---------------------------------------------------------|
A|---------------------------------------------------------|
F|---------------------------------------------------------|
C|-----------------------2p0-2----------------6-5p0-5p0-3--|
G|-----------------------2p0-2----------------6-5p0-5p0-3--|
C|--3p0-00-2p0-00-3p0-xx-2p0-2--3p0-00-2p0-xx-6-5p0-5p0-3--|

And there you have it. It's definitely one of the best songs on the album.
If you've got any questions or anything regarding this tab then you can
There'll be more Genuflect tabs on the way.
            
Hard to play? Try these video lessons and learn fast. | Correct




comments powered by Disqus
↑ Back to top | Tablatures and chords are parodies/interpretations of the original songs. You may use it for private study, scholarship, research or language learning purposes only