>
 >
Dead Right

Dead Right Guitar Tabs

Genuflect - Dead Right chords, tabs, tablatures, lyrics

Guitar lessons | Add/correct | Request | Top 50 tabs Artists:  A B C D E F G H I J K L M N O P Q R S T U V W X Y Z 0-9

Dead Right Guitar Tabs – Genuflect

CD, Sheet music, Poster

Do you like Dead Right? Share with your friends now
Tabs
Genuflect - Dead Right, drop C tuning, tabbing by Spm

I noticed a while ago that this song (nor many other
Genuflect songs) are on tab, so I thought I'd learn
a few and share the love (of anti-religion hate vibes)


Intro riff/verse:
        
D|------------------------------------------------|\
A|------------------------------------------------| \
F|------------------------------------------------|  \
C|------------------------------------------------|   \
G|------------------------------------1-----1-----|    \
C|0-----0-----0-----0-----2-----2-----------------|     \
                                                         \
D|------------------------------------------------|       \
A|------------------------------------------------|        \
F|------------------------------------------------|         \
C|------------------------------------------------|          \
G|------------------------------------1-----1-----|           \
C|1-----0-----0-----0-----2-----2-----------------|            \
                                                                |------> x4
D|------------------------------------------------|            /
A|------------------------------------------------|           /
F|------------------------------------------------|          /
C|------------------------------------------------|         /
G|------------------------------------------------|        /
C|0-----0-----0-----0-----3-----3-----2-----2-----|       /
                                                         /
D|------------------------------------------------|     /
A|------------------------------------------------|    /
F|------------------------------------------------|   /
C|------------------------------------------------|  /
G|------------------------------------------------| /
C|2-----0-----0-----0-----3-----3-----5-----5-----|/

Bridge:

D|------------------------------------------------|\
A|------------------------------------------------| \
F|------------------------------------------------|  \
C|0-----------------0-----------2-----------8-----|   \
G|0-----------------0-----------2-----------8-----|    \
C|0-----------------0-----------2-----------8-----|     \
                                                         \
D|------------------------------------------------|       \
A|------------------------------------------------|        \
F|------------------------------------------------|         \
C|--------0---------0-----------2-----------8-----|          \
G|--------0---------0-----------2-----------8-----|           \
C|--------0---------0-----------2-----------8-----|            \
                                                                |------> x4 
D|------------------------------------------------|            /
A|------------------------------------------------|           /
F|------------------------------------------------|          /
C|x------0----------0-----------3-----------2-----|         /
G|x------0----------0-----------3-----------2-----|        /
C|x------0----------0-----------3-----------2-----|       /
                                                         /
D|------------------------------------------------|     /
A|------------------------------------------------|    /
F|------------------------------------------------|   /
C|-------0----------0-----------3-----3-----5----5|  /
G|-------0----------0-----------3-----3-----5----5| /
C|-------0----------0-----------3-----3-----5----5|/


Verse/intro riff:

D|------------------------------------------------|\
A|------------------------------------------------| \
F|------------------------------------------------|  \
C|------------------------------------------------|   \
G|------------------------------------1-----1-----|    \
C|0-----0-----0-----0-----2-----2-----------------|     \
                                                         \
D|------------------------------------------------|       \
A|------------------------------------------------|        \
F|------------------------------------------------|         \
C|------------------------------------------------|          \
G|------------------------------------1-----1-----|           \
C|1-----0-----0-----0-----2-----2-----------------|            \
                                                                |------> x4
D|------------------------------------------------|            /
A|------------------------------------------------|           /
F|------------------------------------------------|          /
C|------------------------------------------------|         /
G|------------------------------------------------|        /
C|0-----0-----0-----0-----3-----3-----2-----2-----|       /
                                                         /
D|------------------------------------------------|     /
A|------------------------------------------------|    /
F|------------------------------------------------|   /
C|------------------------------------------------|  /
G|------------------------------------------------| /
C|2-----0-----0-----0-----3-----3-----5-----5-----|/


Chorus:

D|------------------------------------------------|\
A|------------------------------------------------| \
F|------------------------------------------------|  \
C|0-----------------0-----------0-----0-----0-----|   \
G|0-----------------0-----------0-----0-----0-----|    \
C|0-----------------0-----------0-----0-----0-----|     \
                                                         \
D|------------------------------------------------|       \
A|------------------------------------------------|        \
F|------------------------------------------------|         \
C|5-----3-----------3-----------3-----3-----3-----|          \
G|5-----3-----------3-----------3-----3-----3-----|           \
C|5-----3-----------3-----------3-----3-----3-----|            \
                                                                \
D|------------------------------------------------|              \
A|------------------------------------------------|               \
F|------------------------------------------------|                \
C|8-----8-----8-----8-----8-----8-----8-----8-----|                |----->x2
G|8-----8-----8-----8-----8-----8-----8-----8-----|               /
C|8-----8-----8-----8-----8-----8-----8-----8-----|              /
             pm                                                 /
D|------------------------------------------------|            /
A|------------------------------------------------|           /
F|------------------------------------------------|          /
C|0-----------0-----0-----------0-----0-----0-----|         /
G|0-----------0-----0-----------0-----0-----0-----|        /
C|0-----------0-----0-----------0-----0-----0-----|       /
                                                         /
D|------------------------------------------------|     /
A|------------------------------------------------|    /
F|------------------------------------------------|   /
C|5-----3-----------3-----------3-----3-----3-----|  /
G|5-----3-----------3-----------3-----3-----3-----| /
C|5-----3-----------3-----------3-----3-----3-----|/
                                               /
D|------------------------|                /
A|------------------------|            /
F|------------------------|         /
C|8\2---2-----------3-----|      /
G|8\2---2-----------3-----|   /
C|8\2---2-----------3-----|/


Verse 2:

D|------------------------------------------------|\
A|------------------------------------------------| \
F|------------------------------------------------|  \
C|------------------------------------------------|   \
G|------------------------------------1-----1-----|    \
C|0-----0-----0-----0-----2-----2-----------------|     \
                                                         \
D|------------------------------------------------|       \
A|------------------------------------------------|        \
F|------------------------------------------------|         \
C|------------------------------------------------|          \
G|------------------------------------1-----1-----|           \
C|1-----0-----0-----0-----2-----2-----------------|            \
                                                                |------> x2
D|------------------------------------------------|            /
A|------------------------------------------------|           /
F|------------------------------------------------|          /
C|------------------------------------------------|         /
G|------------------------------------------------|        /
C|0-----0-----0-----0-----3-----3-----2-----2-----|       /
                                                         /
D|------------------------------------------------|     /
A|------------------------------------------------|    /
F|------------------------------------------------|   /
C|------------------------------------------------|  /
G|------------------------------------------------| /
C|2-----0-----0-----0-----3-----3-----5-----5-----|/

pm|------------------|                   
D|------------------------------------------------|
A|------------------------------------------------| 
F|------------------------------------------------|  
C|------------------------------------------------|   
G|0-----0-----0-----0-----0-----------------------|    
C|0-----0-----0-----0-----0-----------------------|
     
     pm|-------------|                                   
D|------------------------------------------------|       
A|------------------------------------------------|        
F|------------------------------------------------|         
C|------------------------------------------------|          
G|------0-----0-----0-----0-----------------------|           
C|------0-----0-----0-----0-----------------------| 
           
pm|------------------|                                      
D|------------------------------------------------|            
A|------------------------------------------------|           
F|------------------------------------------------|          
C|------------------------------------------------|         
G|0-----0-----0-----0-----0-----------------------|        
C|0-----0-----0-----0-----0-----------------------| 
      
     pm|-------------|                                   
D|------------------------------------------------|     
A|------------------------------------------------|    
F|------------------------------------------------|   
C|------------------------------------------------|  
G|------0-----0-----0-----0-----------------------| 
C|------0-----0-----0-----0-----------5^6---------|
                                            
pm|------------------|                          
D|------------------------------------------------|
A|------------------------------------------------| 
F|------------------------------------------------|  
C|------------------------------------------------|   
G|0-----0-----0-----0-----0-----------------------|    
C|0-----0-----0-----0-----0-----------------------|
     
     pm|-------------|                                   
D|------------------------------------------------|       
A|------------------------------------------------|        
F|------------------------------------------------|         
C|------------------------------------------------|          
G|------0-----0-----0-----0-----------------------|           
C|------0-----0-----0-----0-----------------------|
                                                  
D|------------------------------------------------|       
A|------------------------------------------------|        
F|------------------------------------------------|         
C|------------------------------------------------|          
G|3-----------3-----3-----------------------------|           
C|3-----------3-----3-----------------------------|
                                                  
D|------------------------------------------------|       
A|------------------------------------------------|        
F|------------------------------------------------|         
C|------------------------------------------------|          
G|5-----5-----5-----5-----------------------------|           
C|5-----5-----5-----5-----------------5^6---------|


Chorus 2:

D|------------------------------------------------|
A|------------------------------------------------| 
F|------------------------------------------------|  
C|0-----------------0-----------0-----0-----0-----|   
G|0-----------------0-----------0-----0-----0-----|    
C|0-----------------0-----------0-----0-----0-----|     
                                                         
D|------------------------------------------------|       
A|------------------------------------------------|        
F|------------------------------------------------|         
C|5-----3-----------3-----------3-----3-----3-----|          
G|5-----3-----------3-----------3-----3-----3-----|           
C|5-----3-----------3-----------3-----3-----3-----|            
                                                                
D|------------------------------------------------|              
A|------------------------------------------------|               
F|------------------------------------------------|               
C|8-----8-----8-----8-----8-----8-----8-----8-----|                
G|8-----8-----8-----8-----8-----8-----8-----8-----|               
C|8-----8-----8-----8-----8-----8-----8-----8-----|              
             pm                                                 
D|------------------------------------------------|            
A|------------------------------------------------|           
F|------------------------------------------------|          
C|0-----------0-----0-----------0-----0-----0-----|         
G|0-----------0-----0-----------0-----0-----0-----|        
C|0-----------0-----0-----------0-----0-----0-----|       
                                                         
D|------------------------------------------------|     
A|------------------------------------------------|    
F|------------------------------------------------|   
C|5-----3-----------3-----------3-----3-----3-----|  
G|5-----3-----------3-----------3-----3-----3-----| 
C|5-----3-----------3-----------3-----3-----3-----|
                                                  
D|------------------------|                
A|------------------------|            
F|------------------------|         
C|8\2---2-----------3-----|      
G|8\2---2-----------3-----|   
C|8\2---2-----------3-----|

D|------------------------------------------------|
A|------------------------------------------------| 
F|------------------------------------------------|  
C|0-----------------0-----------0-----0-----0-----|   
G|0-----------------0-----------0-----0-----0-----|    
C|0-----------------0-----------0-----0-----0-----|     
                                                         
D|------------------------------------------------|       
A|------------------------------------------------|        
F|------------------------------------------------|         
C|5-----3-----------3-----------3-----3-----3-----|          
G|5-----3-----------3-----------3-----3-----3-----|           
C|5-----3-----------3-----------3-----3-----3-----|            
                                                                
D|------------------------------------------------|              
A|------------------------------------------------|               
F|------------------------------------------------|               
C|8-----8-----8-----8-----8-----8-----8-----8-----|                
G|8-----8-----8-----8-----8-----8-----8-----8-----|               
C|8-----8-----8-----8-----8-----8-----8-----8-----|              
             pm                                                 
D|------------------------------------------------|            
A|------------------------------------------------|           
F|------------------------------------------------|          
C|0-----------0-----0-----------0-----0-----0-----|         
G|0-----------0-----0-----------0-----0-----0-----|        
C|0-----------0-----0-----------0-----0-----0-----|       
                                                         
D|------------------------------------------------|     
A|------------------------------------------------|    
F|------------------------------------------------|   
C|5-----3-----------3-----------3-----3-----3-----|  
G|5-----3-----------3-----------3-----3-----3-----| 
C|5-----3-----------3-----------3-----3-----3-----|
                                                  
D|------------------------------------------------|                
A|------------------------------------------------|            
F|------------------------------------------------|         
C|8\2---2-----------3-----5-----------3----------2|      
G|8\2---2-----------3-----5-----------3----------2|   
C|8\2---2-----------3-----5-----------3----------2|
                                                  
Interlude:                                    
                                            
  dm           dm         dm  dm dMj   dMj      dMj     
D|------------------------------------------------|                
A|------------------------------------------------|            
F|0------------0----------0---0---0-----0--------0|         
C|2------------2----------2---3---3-----3--------3|      
G|3------------3----------3---2---2-----2--------2|   
C|1------------1----------1---1---3-----3--------3|
                                                    
  dMj dm       dm         dm  dm dMj dMj dMj   dMj     
D|------------------------------------------------|                
A|------------------------------------------------|            
F|0---0--------0----------0---0---0---0---0------0|         
C|2---2--------2----------2---2---3---3---3------3|   
G|3---3--------3----------3---3---2---2---2------2|   
C|3---1--------1----------1---1---3---3---3------3|
                                                            
D|------------------------------------------------|     
A|------------------------------------------------|    
F|------------------------------------------------|   
C|0-----8-----8/7----------7-----------7---7/8---8|  
G|0-----8-----8/7----------7-----------7---7/8---8| 
C|0-----8-----8/7----------7-----------7---7/8---8|
                                                   
D|------------------------------------------------|     
A|------------------------------------------------|    
F|------------------------------------------------|   
C|8-----8---8---3-------3-----3---3---5---5---5--5|  
G|8-----8---8---3-------3-----3---3---5---5---5--5| 
C|8-----8---8---3-------3-----3---3---5---5---5--5|

  dm           dm         dm  dm dMj   dMj      dMj     
D|------------------------------------------------|                
A|------------------------------------------------|            
F|0------------0----------0---0---0-----0--------0|         
C|2------------2----------2---3---3-----3--------3|      
G|3------------3----------3---2---2-----2--------2|   
C|1------------1----------1---1---3-----3--------3|
                                                    
  dMj dm       dm         dm  dm dMj dMj dMj   dMj     
D|------------------------------------------------|                
A|------------------------------------------------|            
F|0---0--------0----------0---0---0---0---0------0|         
C|2---2--------2----------2---2---3---3---3------3|   
G|3---3--------3----------3---3---2---2---2------2|   
C|3---1--------1----------1---1---3---3---3------3|
                                                            
D|------------------------------------------------|     
A|------------------------------------------------|    
F|------------------------------------------------|   
C|0-----8-----8/7----------7-----------7---7/8---8|  
G|0-----8-----8/7----------7-----------7---7/8---8| 
C|0-----8-----8/7----------7-----------7---7/8---8|
                                     pm  pm           
D|------------------------------------------------|     
A|------------------------------------------------|    
F|------------------------------------------------|   
C|8-----8---8---3-------3-----3---3---5---5---5--5|  
G|8-----8---8---3-------3-----3---3---5---5---5--5| 
C|8-----8---8---3-------3-----3---3---5---5---5--5|
                                                                   

No idea what this part of the song is called:
                         pm pm              pm                  
D|------------------------------------------------|\              
A|------------------------------------------------| \              
F|------------------------------------------------|  \             
C|0-----1-------1---0-----0--0---0-----0-----0---0|  _|-----------> x4              
G|0-----1-------1---0-----0--0---0-----0-----0---0| /              
C|0-----1-------1---0-----0--0---0-----0-----0---0|/


Chorus 3:

D|------------------------------------------------|\
A|------------------------------------------------| \
F|-----------------------------------9-9--7-7--5-5|  \
C|0-----------------0-----------0----7-7--5-5--3-3|   \
G|0-----------------0-----------0-----------------|    \
C|0-----------------0-----------0-----------------|     \
                                                         \
D|------------------------------------------------|       \
A|------------------------------------------------|        \
F|4-4---------------------------------------------|         \
C|2-2--3-----------3-----------3-----3-----3------|          \
G|-----3-----------3-----------3-----3-----3------|           \
C|-----3-----------3-----------3-----3-----3------|            \
                                                                \
D|------------------------------------------------|              \
A|------------------------------------------------|               \
F|------------------------------------------------|                \
C|8-----8-----8-----8-----8-----8-----8-----8-----|                |----->x2
G|8-----8-----8-----8-----8-----8-----8-----8-----|               /
C|8-----8-----8-----8-----8-----8-----8-----8-----|              /
             pm                                                 /
D|------------------------------------------------|            /
A|------------------------------------------------|           /
F|------------------------------------------------|          /
C|0-----------0-----0-----------0-----0-----0-----|         /
G|0-----------0-----0-----------0-----0-----0-----|        /
C|0-----------0-----0-----------0-----0-----0-----|       /
                                                         /
D|------------------------------------------------|     /
A|------------------------------------------------|    /
F|------------------------------------------------|   /
C|5-----3-----------3-----------3-----3-----3-----|  /
G|5-----3-----------3-----------3-----3-----3-----| /
C|5-----3-----------3-----------3-----3-----3-----|/
                                               /
D|------------------------|                /
A|------------------------|            /
F|------------------------|         /
C|8\2---2-----------3-----|      /
G|8\2---2-----------3-----|   /
C|8\2---2-----------3-----|/

D|------------------------------------------------|
A|------------------------------------------------| 
F|-----------------------------------9-9--7-7--5-5|  
C|0-----------------0-----------0----7-7--5-5--3-3|   
G|0-----------------0-----------0-----------------|    
C|0-----------------0-----------0-----------------|     
                                                         
D|------------------------------------------------|       
A|------------------------------------------------|        
F|4-4---------------------------------------------|         
C|2-2--3-----------3-----------3-----3-----3------|          
G|-----3-----------3-----------3-----3-----3------|           
C|-----3-----------3-----------3-----3-----3------|            
                                                                
D|------------------------------------------------|              
A|------------------------------------------------|               
F|------------------------------------------------|               
C|8-----8-----8-----8-----8-----8-----8-----8-----|                
G|8-----8-----8-----8-----8-----8-----8-----8-----|               
C|8-----8-----8-----8-----8-----8-----8-----8-----|              
             pm                                                 
D|------------------------------------------------|            
A|------------------------------------------------|           
F|------------------------------------------------|          
C|0-----------0-----0-----------0-----0-----0-----|         
G|0-----------0-----0-----------0-----0-----0-----|        
C|0-----------0-----0-----------0-----0-----0-----|       
                                                         
D|------------------------------------------------|     
A|------------------------------------------------|    
F|------------------------------------------------|   
C|5-----3-----------3-----------3-----3-----3-----|  
G|5-----3-----------3-----------3-----3-----3-----| 
C|5-----3-----------3-----------3-----3-----3-----|
                                                  
D|------------------------------------------------|                
A|------------------------------------------------|            
F|------------------------------------------------|         
C|8\2---2-----------3-----5-----------3----------2|      
G|8\2---2-----------3-----5-----------3----------2|   
C|8\2---2-----------3-----5-----------3----------2|

Outro:
      pm          pm          pm|-----|                   
D|------------------------------------------------|              
A|------------------------------------------------|               
F|------------------------------------------------|               
C|-----0---0-------0---0---0----0-0-0-0--0----0--0|                
G|-----0---0-------0---0---0----0-0-0-0--0----0--0|               
C|-----0---0-------0---0---0----0-0-0-0--0----0--0|

D|------------------------------------------------|                
A|------------------------------------------------|            
F|------------------------------------------------|         
C|8\2---2-----------3-----5-----------3----------2|      
G|8\2---2-----------3-----5-----------3----------2|   
C|8\2---2-----------3-----5-----------3----------2|

      pm          pm          pm|------|                   
D|------------------------------------------------|              
A|------------------------------------------------|               
F|------------------------------------------------|               
C|-----0---0-------0---0---0----0-0-0-0--0----0--0|                
G|-----0---0-------0---0---0----0-0-0-0--0----0--0|               
C|-----0---0-------0---0---0----0-0-0-0--0----0--0|

D|------------------------------------------------|                
A|------------------------------------------------|            
F|------------------------------------------------|         
C|8\2---2-----------3-----5-----------3----------2|      
G|8\2---2-----------3-----5-----------3----------2|   
C|8\2---2-----------3-----5-----------3----------2|

      pm          pm          pm|------|                   
D|------------------------------------------------|              
A|------------------------------------------------|               
F|------------------------------------------------|               
C|-----0---0-------0---0---0----0-0-0-0--0----0--0|                
G|-----0---0-------0---0---0----0-0-0-0--0----0--0|               
C|-----0---0-------0---0---0----0-0-0-0--0----0--0|

D|------------------------------------------------|                
A|------------------------------------------------|            
F|------------------------------------------------|         
C|8\2---2-----------3-----5-----------3-----------|      
G|8\2---2-----------3-----5-----------3-----------|   
C|8\2---2-----------3-----5-----------3-----------|

      pm          pm          pm|------|                   
D|------------------------------------------------|              
A|------------------------------------------------|               
F|------------------------------------------------|               
C|-----0---0-------0---0---0----0-0-0-0--0----0--0|                
G|-----0---0-------0---0---0----0-0-0-0--0----0--0|               
C|12\\-0---0-------0---0---0----0-0-0-0--0----0--0|

D|------------------------------------------------|                
A|------------------------------------------------|            
F|------------------------------------------------|         
C|8\2---2-----------3-----5-----------3----------2|      
G|8\2---2-----------3-----5-----------3----------2|   
C|8\2---2-----------3-----5-----------3----------2|

      pm          pm          pm|------|                   
D|------------------------------------------------|              
A|------------------------------------------------|               
F|------------------------------------------------|               
C|-----0---0-------0---0---0----0-0-0-0--0---0----|                
G|-----0---0-------0---0---0----0-0-0-0--0---0----|               
C|-----0---0-------0---0---0----0-0-0-0--0---0----|
        pm          pm          pm   pm
D|------------------------------------------------|                
A|------------------------------------------------|            
F|------------------------------------------------|         
C|0------0----0------0----0------0----0--------(0)|      
G|0------0----0------0----0------0----0--------(0)|   
C|0------0----0------0----0------0----0--------(0)|

(The last palm mute is played by lightly barring the end of
the first fret, to create an even more muted sound)





Comments


Popular Genuflect tabs & chords
Bullet Tabs
Dark As Night Tabs
Dark As Night Intro Tabs
Epinephrine Tabs
Head Hearse Tabs
Long Way Home Tabs
Revelation Tabs


Song lyrics



↑ Back to top | Tablatures and chords are parodies/interpretations of the original songs. You may use it for private study, scholarship, research or language learning purposes only
© 2014 AZChords.com Contact us | Privacy policy | DMCA | Add/correct tabs | Request tabs | Top 50 tabs