>
 >
Bullet

Bullet Guitar Tabs

Genuflect - Bullet chords, tabs, tablatures, lyrics

Guitar lessons | Add/correct | Request | Top 50 tabs Artists:  A B C D E F G H I J K L M N O P Q R S T U V W X Y Z 0-9

Bullet Guitar Tabs – Genuflect

CD, Sheet music, Poster

Do you like Bullet? Share with your friends now
Tabs

TUNING: CGCFAD

LEGEND: /  slide up
        \  slide down
        h  hammer-on
        p  pull-off
        v  vibrato
        b  bend
        x  palm-mute


VERSE ONE

D|----------------------------------|
A|----------------------------------|
F|----------------------------------|
C|----------------------------------|
G|----------------------------------|
C|--x-x-x-x-x-2b----x-x-x-x-x-2b----|

D|-----------------------------------------------|
A|-----------------------------------------------|
F|-----------------------------------------------|
C|-----------------------------------------------|
G|--------------------------------------7--7-7---|
C|--x-x-x-x-x-2b--0h5p0h5--x-x-0h2-0h2-----------|

D|----------------------------------|
A|----------------------------------|
F|----------------------------------|
C|----------------------------------|
G|----------------------------------|
C|--x-x-x-x-x-2b----x-x-x-x-x-2b----|

D|-------------------------------------------------|
A|-------------------------------------------------|
F|-------------------------------------------------|
C|--------------------------------------------6----|
G|--------------------------------------7p6p5---5--|
C|--x-x-x-x-x-2b--0h5p0h5--x-x-0h2-0h2-------------|

D|----------------------------------|
A|----------------------------------|
F|----------------------------------|
C|----------------------------------|
G|----------------------------------|
C|--x-x-x-x-x-2b----x-x-x-x-x-2b----|

D|-----------------------------------------------|
A|-----------------------------------------------|
F|-----------------------------------------------|
C|-----------------------------------------------|
G|--------------------------------------7--7-7---|
C|--x-x-x-x-x-2b--0h5p0h5--x-x-0h2-0h2-----------|

D|----------------------------------|
A|----------------------------------|
F|----------------------------------|
C|----------------------------------|
G|----------------------------------|
C|--x-x-x-x-x-2b----x-x-x-x-x-2b----|

D|-------------------------------------------------|
A|-------------------------------------------------|
F|-------------------------------------------------|
C|--------------------------------------------6----|
G|--------------------------------------7p6p5---5--|
C|--x-x-x-x-x-2b--0h5p0h5--x-x-0h2-0h2-------------|


CHORUS

D|--------------------------------|
A|--------------------------------|
F|--------------------------------|
C|--------------------------------|
G|--------------------------------|
C|--0h2-0h2-3p2----0h2-0h2-3p2----|

D|--------------------------------|
A|--------------------------------|
F|--------------------------------|
C|--------------------------------|
G|----------3-------------1-------|
C|--0h2-0h2--5-5--0h2-0h2--3-3----|

D|--------------------------------|
A|--------------------------------|
F|--------------------------------|
C|--------------------------------|
G|--------------------------------|
C|--0h2-0h2-3p2----0h2-0h2-3p2----|

D|-------------------------------|
A|-------------------------------|
F|-------------------------------|
C|-------------------------------|
G|----------3--------------------|
C|--0h2-0h2--5-5--0h2-0h2--------|


D|-------------------------------|
A|-------------------------------|
F|-------------------------------|
C|--0h2---0h2---0-8p7-0h5-0h5h7--|
G|--0h2---0h2---0-8p7-0h5-0h5h7--|
C|--0h2---0h2---0-8p7-0h5-0h5h7--|

D|-------------------------------|
A|-------------------------------|
F|-------------------------------|
C|--0h2---0h2---0-8p7-0--5---5---|
G|--0h2---0h2---0-8p7-0--5---5---|
C|--0h2---0h2---0-8p7-0--5---5---|

D|-------------------------------|
A|-------------------------------|
F|-------------------------------|
C|--0h2---0h2---0-8p7-0h5-0h5h7--|
G|--0h2---0h2---0-8p7-0h5-0h5h7--|
C|--0h2---0h2---0-8p7-0h5-0h5h7--|

D|-------------------------------|
A|-------------------------------|
F|-------------------------------|
C|-------------------------------|
G|--3-----3--------1-----1-------|
C|----5-5---5-5------3-3---3-3---|


VERSE TWO

D|----------------------------------|
A|----------------------------------|
F|----------------------------------|
C|----------------------------------|
G|----------------------------------|
C|--x-x-x-x-x-2b----x-x-x-x-x-2b----|

D|-----------------------------------------------|
A|-----------------------------------------------|
F|-----------------------------------------------|
C|-----------------------------------------------|
G|--------------------------------------7--7-7---|
C|--x-x-x-x-x-2b--0h5p0h5--x-x-0h2-0h2-----------|

D|----------------------------------|
A|----------------------------------|
F|----------------------------------|
C|----------------------------------|
G|----------------------------------|
C|--x-x-x-x-x-2b----x-x-x-x-x-2b----|

D|-------------------------------------------------|
A|-------------------------------------------------|
F|-------------------------------------------------|
C|--------------------------------------------6----|
G|--------------------------------------7p6p5---5--|
C|--x-x-x-x-x-2b--0h5p0h5--x-x-0h2-0h2-------------|


CHORUS

D|--------------------------------|
A|--------------------------------|
F|--------------------------------|
C|--------------------------------|
G|--------------------------------|
C|--0h2-0h2-3p2----0h2-0h2-3p2----|

D|--------------------------------|
A|--------------------------------|
F|--------------------------------|
C|--------------------------------|
G|----------3-------------1-------|
C|--0h2-0h2--5-5--0h2-0h2--3-3----|

D|--------------------------------|
A|--------------------------------|
F|--------------------------------|
C|--------------------------------|
G|--------------------------------|
C|--0h2-0h2-3p2----0h2-0h2-3p2----|

D|--------------------------------|
A|--------------------------------|
F|--------------------------------|
C|--------------------------------|
G|----------3---------------------|
C|--0h2-0h2--5-5--0h2-0h2---------|


D|-------------------------------|
A|-------------------------------|
F|-------------------------------|
C|--0h2---0h2---0-8p7-0h5-0h5h7--|
G|--0h2---0h2---0-8p7-0h5-0h5h7--|
C|--0h2---0h2---0-8p7-0h5-0h5h7--|

D|-------------------------------|
A|-------------------------------|
F|-------------------------------|
C|--0h2---0h2---0-8p7-0--5---5---|
G|--0h2---0h2---0-8p7-0--5---5---|
C|--0h2---0h2---0-8p7-0--5---5---|

D|-------------------------------|
A|-------------------------------|
F|-------------------------------|
C|--0h2---0h2---0-8p7-0h5-0h5h7--|
G|--0h2---0h2---0-8p7-0h5-0h5h7--|
C|--0h2---0h2---0-8p7-0h5-0h5h7--|

D|-------------------------------|
A|-------------------------------|
F|-------------------------------|
C|-------------------------------|
G|--3-----3--------1-----1-------|
C|----5-5---5-5------3-3---3-3---|

D|-------------------------------|
A|-------------------------------|
F|-------------------------------|
C|--0h2---0h2---0-8p7-0h5-0h5h7--|
G|--0h2---0h2---0-8p7-0h5-0h5h7--|
C|--0h2---0h2---0-8p7-0h5-0h5h7--|

D|-------------------------------|
A|-------------------------------|
F|-------------------------------|
C|--0h2---0h2---0-8p7-0--5---5---|
G|--0h2---0h2---0-8p7-0--5---5---|
C|--0h2---0h2---0-8p7-0--5---5---|

D|-------------------------------|
A|-------------------------------|
F|-------------------------------|
C|--0h2---0h2---0-8p7-0h5-0h5h7--|
G|--0h2---0h2---0-8p7-0h5-0h5h7--|
C|--0h2---0h2---0-8p7-0h5-0h5h7--|

D|-------------------------------|
A|-------------------------------|
F|-------------------------------|
C|-------------------------------|
G|--3-----3--------1-----1-------|
C|----5-5---5-5------3-3---3-3---|


BRIDGE (palm-muted)

D|---------------------------------------------|
A|---------------------------------------------|
F|---------------------------------------------|
C|---------------------------------------------|
G|---------------------------------------------|
C|--3-2-2-3-2-2-2--3-0-0-3-0-0-0--3-2-2-3-2-0--|

                            
FILL

D|--------------|
A|--------------|
F|--------------|
C|--9-10-12-13--|
G|--9-10-12-13--|
C|--9-10-12-13--|


BREAKDOWN

D|---------------------------------------------|
A|---------------------------------------------|
F|---------------------------------------------|
C|--3-2---3-2-2-2--3-0---3-0-0-0--3-2---3p2p0--|
G|--3-2---3-2-2-2--3-0---3-0-0-0--3-2---3p2p0--|
C|--3-2---3-2-2-2--3-0---3-0-0-0--3-2---3p2p0--|

D|--------------|
A|--------------|
F|--------------|
C|--9-10-12-13--|
G|--9-10-12-13--|
C|--9-10-12-13--|

D|---------------------------------------------|
A|---------------------------------------------|
F|---------------------------------------------|
C|--3-2---3-2-2-2--3-0---3-0-0-0--3-2---3p2p0--|
G|--3-2---3-2-2-2--3-0---3-0-0-0--3-2---3p2p0--|
C|--3-2---3-2-2-2--3-0---3-0-0-0--3-2---3p2p0--|

D|----------------|
A|----------------|
F|----------------|
C|--x-x-1--x-x-1--|
G|--x-x-1--x-x-1--|
C|--x-x-1--x-x-1--|

D|---------------------------------------------|
A|---------------------------------------------|
F|---------------------------------------------|
C|--3-2---3-2-2-2--3-0---3-0-0-0--3-2---3p2p0--|
G|--3-2---3-2-2-2--3-0---3-0-0-0--3-2---3p2p0--|
C|--3-2---3-2-2-2--3-0---3-0-0-0--3-2---3p2p0--|

D|--------------|
A|--------------|
F|--------------|
C|--9-10-12-13--|
G|--9-10-12-13--|
C|--9-10-12-13--|

D|---------------------------------------------|
A|---------------------------------------------|
F|---------------------------------------------|
C|--3-2---3-2-2-2--3-0---3-0-0-0--3-2---3p2p0--|
G|--3-2---3-2-2-2--3-0---3-0-0-0--3-2---3p2p0--|
C|--3-2---3-2-2-2--3-0---3-0-0-0--3-2---3p2p0--|

D|----------------|
A|----------------|
F|----------------|
C|--x-x-1--x-x-1--|
G|--x-x-1--x-x-1--|
C|--x-x-1--x-x-1--|


CHORUS

D|--------------------------------|
A|--------------------------------|
F|--------------------------------|
C|--------------------------------|
G|--------------------------------|
C|--0h2-0h2-3p2v---0h2-0h2-3p2v---|

D|--------------------------------|
A|--------------------------------|
F|--------------------------------|
C|--------------------------------|
G|----------3-------------1-------|
C|--0h2-0h2--5-5--0h2-0h2--3-3----|

D|--------------------------------|
A|--------------------------------|
F|--------------------------------|
C|--------------------------------|
G|--------------------------------|
C|--0h2-0h2-3p2v---0h2-0h2-3p2v---|

D|--------------------------------|
A|--------------------------------|
F|--------------------------------|
C|--------------------------------|
G|----------3---------------------|
C|--0h2-0h2--5-5--0h2-0h2---------|


BRIDGE (palm-muted)

D|-----------------------------------|
A|-----------------------------------|
F|-----------------------------------|
C|-----------------------------------|
G|-----------------------------------|
C|--0h2-2-2-0h2-2-2-0-8p7-0h5-0h5h7--|

D|-----------------------------------|
A|-----------------------------------|
F|-----------------------------------|
C|-----------------------------------|
G|-----------------------------------|
C|--0h2-2-2-0h2-2-2-0-8p7-0--5---5---|

D|-----------------------------------|
A|-----------------------------------|
F|-----------------------------------|
C|-----------------------------------|
G|-----------------------------------|
C|--0h2-2-2-0h2-2-2-0-8p7-0h5-0h5h7--|


FILL

D|-------------------------------|
A|-------------------------------|
F|-------------------------------|
C|-------------------------------|
G|--3-----3--------1-----1-------|
C|----5-5---5-5------3-3---3-3---|


CHORUS

D|-------------------------------|
A|-------------------------------|
F|-------------------------------|
C|--0h2---0h2---0-8p7-0h5-0h5h7--|
G|--0h2---0h2---0-8p7-0h5-0h5h7--|
C|--0h2---0h2---0-8p7-0h5-0h5h7--|

D|-------------------------------|
A|-------------------------------|
F|-------------------------------|
C|--0h2---0h2---0-8p7-0--5---5---|
G|--0h2---0h2---0-8p7-0--5---5---|
C|--0h2---0h2---0-8p7-0--5---5---|

D|-------------------------------|
A|-------------------------------|
F|-------------------------------|
C|--0h2---0h2---0-8p7-0h5-0h5h7--|
G|--0h2---0h2---0-8p7-0h5-0h5h7--|
C|--0h2---0h2---0-8p7-0h5-0h5h7--|

D|-------------------------------|
A|-------------------------------|
F|-------------------------------|
C|-------------------------------|
G|--3-----3--------1-----1-------|
C|----5-5---5-5------3-3---3-3---|


OUTRO

D|---------------------------------------------|
A|---------------------------------------------|
F|---------------------------------------------|
C|--3-2---3-2-2-2--3-0---3-0-0-0--3-2---3p2p0--|
G|--3-2---3-2-2-2--3-0---3-0-0-0--3-2---3p2p0--|
C|--3-2---3-2-2-2--3-0---3-0-0-0--3-2---3p2p0--|

D|--------------|
A|--------------|
F|--------------|
C|--9-10-12-13--|
G|--9-10-12-13--|
C|--9-10-12-13--|

D|---------------------------------------------|
A|---------------------------------------------|
F|---------------------------------------------|
C|--3-2---3-2-2-2--3-0---3-0-0-0--3-2---3p2p0--|
G|--3-2---3-2-2-2--3-0---3-0-0-0--3-2---3p2p0--|
C|--3-2---3-2-2-2--3-0---3-0-0-0--3-2---3p2p0--|

D|----------------|
A|----------------|
F|----------------|
C|--x-x-1--x-x-1--|
G|--x-x-1--x-x-1--|
C|--x-x-1--x-x-1--|



And that's how I play Genuflect's "Bullet" from their new album.
If you have any questions regarding this or any other of my tabs, then





Comments


Popular Genuflect tabs & chords
Dark As Night Tabs
Dark As Night Intro Tabs
Dead Right Tabs
Epinephrine Tabs
Head Hearse Tabs
Long Way Home Tabs
Revelation Tabs


Song lyrics



↑ Back to top | Tablatures and chords are parodies/interpretations of the original songs. You may use it for private study, scholarship, research or language learning purposes only
© 2014 AZChords.com Contact us | Privacy policy | DMCA | Add/correct tabs | Request tabs | Top 50 tabs