» » »

Gentle Giant, Wreck Bass tabs (ver.1)

Artists:  A B C D E F G H I J K L M N O P Q R S T U V W X Y Z # 

Wreck Bass tabs (ver.1)

Gentle Giant Tabs
 Rating:
4/5 (4 votes)
Wreck lessons Tabs too difficult? Try these video lessons and learn fast
1
                -------------------------------------------------------------------------------
-------------------------------------------------------------------------------

Band: Gentle Giant

Tuning: Standard


---intro---
     *   *   *   *   *   *   *   *     *   *   *   *   *   *   *   *
G|-|---------------------------------|-------------------------5-----8-|
D|4|---------------------------------|-----------------3---3-6-----6---|
A|4|---------------------------------|-1-----1-4---1-4---4-------------|
E|-|-----------------------------1---|-----1---------------------------|

     *   *   *   *   *   *   *   *   *       *   *   *   *   *   *   *   *  
G|-|---5---5-3---------------------------|-|-------------------------5-----8-|
D|9|-----6-------3---4-3-----------------|4|-----------------3---3-6-----6---|
A|8|---------------4-----6-4-3---1-3-----|4|-1-----1-4---1-4---4-------------|
E|-|---------------------------------1---|-|-----1---------------------------|

     *   *   *   *   *   *   *   *     *   *   *   *   *   *   *   *
G|-|---5---5-3-----------------------|---------------------------------|
D|4|-----6-------3---4-3-------------|---------------------------------|
A|4|---------------4-----6-4-3---1-3-|---------------------------------|
E|-|---------------------------------|-1---~---~---~---------------0---|


---one--- (0.18)
     *   *   *   *     *   *   *   *       *   *   *   *   *   *   *   * 
G|-|-----------------------------------|-----------------------------------|
D|4|-----------------------------------|-5h7---~-7-5-----------------------|
A|4|-----------------5h7-5-----5---0---|-------------7-5---~-5-------------|
E|-|-5---0-5-8---5-8-------8-----------|-----------------------8-7-5---0---|


---two--- (0.41)
       *   *   *   *   *   *         *   *   *       *   *   *   *   *   *   *   * 
G|-|---------------------------|-|---------------|-|---------------------------------|
D|3|-5h7---~-7-5-------------5-|3|-5h7---~-7-5---|4|---------------------------------|
A|4|-------------7-5---~-5-7---|8|-------------7-|4|-5-------------------------------|
E|-|---------------------------|-|---------------|-|-----8---~---5---3---~-3-3---0---|
   |_          (x2)           _|

---three--- (1.20)
       *   *   *       *   *   *   *   *   *   *   *
G|-|---------------|-|---------------------------------|
D|3|-5h7---~-7-5---|4|---------------------------------|
A|8|-------------7-|4|-5---~---~---~---~---~---~---~---|
E|-|---------------|-|---------------------------------|

(this BASS is played by a HARPSICHORD)    
G|-|---------|---------|---------|---------|---------|---------|---------|---------|
D|4|---4-----|---------|---------|---------|---------|---------|---------|---------|
A|4|-5---5---|-3-------|-2---5---|-3-~-2---|-5-----5-|-------2-|---------|-----5---|
E|-|-------5-|---3-2-~-|---3---5-|-------5-|---3-5---|-3-5-2---|-0-5-0-5-|-3-3---5-|


---four--- (1.52)
     *   *   *   *   *   *   *   *     *   *   *   *   *   *   *   *
G|-|---------------------------------|---------------------------------|
D|4|---------------------------------|---------------------------------|
A|4|-3---~---3---~---3---~---3-------|-3---~---3---~---3---3---3-------|
E|-|--------------3------------3-~---|---------------3---3-------3---3-|

     *   *   *   *   *   *   *   *     *   *   *   *   *   *   *   *
G|-|---------------------------------|---------------------------------|
D|4|---------------------------------|--------(triplet)-------(triplet)|
A|4|-3---~---3---~---3---~---3-------|-3---~---3-----3-5---~---5-----5-|
E|-|---------------3-----------3-~-3-|------------5---------------7----|

     *   *   *   *   *   *   *   *     *   *   *   *   *   *   *   *
G|-|---------------------------------|-----------------9-7-------------|
D|4|---------------------------------|---------------------10--9-------|
A|4|-7---~---7---~---7---7---7---~---|-7---~---7---~-------------------|
E|-|---------------7---7-----------7-|---------------7-------------0---|


************************************************************************
************************************************************************
            
Submit corrections

comments powered by Disqus
↑ Back to top | Gentle Giant Bass for Wreck. Lyrics for acoustic guitar and electric guitar. 1 Tablatures and chords are parodies/interpretations of the original songs. You may use it for private study, scholarship, research or language learning purposes only