» » »

Three Friends Tabs (ver.1)

Artists:  A B C D E F G H I J K L M N O P Q R S T U V W X Y Z # 

Three Friends Tabs (ver.1)

Gentle Giant
Rating:
0/5 (0 votes)

Hard to play? Try these video lessons and learn fast.
                This tab may not be tatally accurate because it is my own interpretation of this 
great song.Enjoy :)


For the first time, it is very hard to get the right timing

Electric guitar:

E ------------------------------------------------------------|
H ------------------------------------------------------------|
G ------9---------9-7-----------------------------------------|
D ----9---7-9---9-----9-7-9------4-4-5-4----7-5---7-9----7----|
A 7-7---------7-------------5-5----------7------7-----10------|
E ---------------------------------------------------------12-|


E --------------------------------------------------------------|
H --------------------------------------------------------------|
G --------------------------------------------------------------|
D -11-12-11-9-7------7-------------7-9--------------------------|
A --------------10-9---7----7-9-10-------------7---5------------|
E -------------------------------------7-9-10----7---7-5-3-2~-0-|


E ------------------------------------------------------------------------------------|
H ------------------------------------------------------------------------------------|
G -----------------------------------------------7/9-7---6-7---6-------------------\7-|
D --------7--------------------5-7------7/9-7-9--------9-----9---7-9-5-7---5----------|
A -7-9-10---0--------7----7-9--------------------------------------------9---7-9-5----|
E ------------7-9-10---0-----------5-7------------------------------------------------|


E ---------------|
H ---------------|
G ---------------|   Repeat about 4 times
D -7-9----7------|
A -----10---9-10-|
E ---------------|
            
Hard to play? Try these video lessons and learn fast. | Correct




comments powered by Disqus
↑ Back to top | Tablatures and chords are parodies/interpretations of the original songs. You may use it for private study, scholarship, research or language learning purposes only