» » »

Gentle Giant, The House The Street The Room Bass tabs (ver.1)

Artists:  A B C D E F G H I J K L M N O P Q R S T U V W X Y Z # 

The House The Street The Room Bass tabs (ver.1)

Gentle Giant Tabs
Rating:
0/5 (0 votes)
The House The Street The Room lessons Tabs too difficult? Try these video lessons and learn fast
                -------------------------------------------------------------------------------
                THE HOUSE, THE STREET, THE MOON - Gentle Giant
-------------------------------------------------------------------------------

Band: Gentle Giant

Tuning: Standard


INTRO
     *   *   *   *     *   *   *   *     *   *   *   *     *   *   *   *
G|-|-----------------|-----------------|-----------------|---1-0-----5-----|
D|4|---------4-----5-|-0-3---1---------|-------1-0-----0-|-3-----3-1-------|
A|4|-3-----3---------|-----2---3-------|---0-3-----3-2---|-------------3---|
E|-|-----------------|-----------4-3-2-|(2)--------------|-----------------|

     *   *   *   *     *   *   *   *     *   *   *   *     *   *   *   *
G|-|-----------------|-----------------|-----------------|-----1-0-----5---|
D|4|---------4-----5-|-0--3----1-------|-------1-0-------|-0-3-----3-1-----|
A|4|-3-----3---------|-------2----3----|---0-3-----3-2---|-----------------|
E|-|-----------------|---------------43|-2---------------|-----------------|


PART ONE (x2)
     *   *   *   *     *   *   *   *     *   *   *   *     *   *   *   *
G|-|-----------------|-----------------|-----------------|---1-0-----5-----|
D|4|---------4-----5-|-0-3---1---------|-------1-0-----0-|-3-----3-1-------|
A|4|-3-----3---------|-----2---3-------|---0-3-----3-2---|-------------3---|
E|-|-----------------|-----------4-3-2-|(2)--------------|-----------------|

     *   *   *   *     *   *   *   *     *   *   *   *       *   *   *
G|-|-----------------|-----------------|-----------------|-|-----1-0-----|
D|4|---------4-----5-|-0--3----1-------|-------1-0-------|3|-0-3-----3-1-|
A|4|-3-----3---------|-------2----3----|---0-3-----3-2---|4|-------------|
E|-|-----------------|---------------43|-2---------------|-|-------------|

     *   *   *   *     *   *   *   *     *   *   *   *     *   *   *   *
G|-|---------3-----4-|(4)---4----------|-------4---------|-------4---------|
D|4|-2---0-2---------|-------7-6-4-----|----3------------|----3------------|
A|4|-----------------|-------------5---|-4---------------|-4---------------|
E|-|-----------------|-----------------|-----------------|-----------------|

     *       *       *       *         *       *       *       *  
G|-|---------5-----5-4---------------|---------5-----5-4---------------|
D|4|-----4---------------5-------5---|-----4---------------5---5-----5-|
A|4|-5-----------------------7-------|-5---------------------------7---|
E|-|---------------------------------|---------------------------------|

     *       *       *       *         *       *       *       *  
G|-|---------5-----5-4---------------|-4---3---2---1---0---------------|
D|4|-----4---------------3-------3---|---------------------4-3-2-1-0---|
A|4|-5-----------------------4-------|-------------------------------4-|
E|-|---------------------------------|---------------------------------|


PART TWO
     *       *       *       *         *       *       *       *  
G|-|---------5-----5-4---------------|---------5-----5-4---------------|
D|4|-----4---------------5-------5---|-----4---------------5---5-----5-|
A|4|-5-----------------------7-------|-5---------------------------7---|
E|-|---------------------------------|---------------------------------|

     *       *       *       *         *       *       *       *  
G|-|---------5-----5-4---------------|-4---3---2---1---0---------------|
D|4|-----4---------------3-------3---|---------------------4-3-2-1-0---|
A|4|-5-----------------------4-------|-------------------------------4-|
E|-|---------------------------------|---------------------------------|


PART THREE (quietly played)
     * * * * * *   * * * * * *   * * * * * *   * * * * * *
G|-|-------------|-------------|-------------|-------------|
D|6|-------------|-------------|-------------|-------------|
A|4|-3-----------|-------------|-------------|-------------|
E|-|-------------|-------------|-------------|-------------|

     *       *       *       *       *       *         * * * * * *
G|-|-------------------------------------------------|-------------|
D|6|-------------------------------------------------|-------------|
A|4|-6---------8-------6-----8-----------------------|-------------|
E|-|-----6-------8-------6-------8-------------------|-------------|
                                                     |_    (x3)   _|

     *       *       *       *       *       *         * * * * * *
G|-|-------------------------------------------------|-------------|
D|6|-4---------6-------4-----6-----------------------|-------------|
A|4|-----4--------6------4-------6-------------------|-------------|
E|-|-------------------------------------------------|-------------|

     *       *       *       *       *       *    
G|-|-------------------------------------------------|
D|6|-4---------6-------4-----6-------4---------6-----|
A|4|-----4-------6-------4-------6-------4-------6---|
E|-|-------------------------------------------------|

     *       *       *       *       *       *    
G|-|-------------------------------------------------|
D|6|---4-----6-------4---------6-------4-----6-------|
A|4|-----4-------6-------4-------6-------4-------6---|
E|-|-------------------------------------------------|

     * * * *   * * * *   * * * *   * * * *     * * * * * *
G|-|---------|---------|---------|---------|-|-------------|
D|4|---------|---------|---------|---------|6|-------------|
A|4|---------|---------|---------|---------|4|-------------|
E|-|-3-------|---------|---------|---------|-|-------------|
                                             |_    (x4)   _|


PART FOUR (fortissimo)
     *       *       *       *       *       *    
G|-|-------------------------------------------------|
D|6|-----------------------------1-------------------|
A|4|-----------------4---------------2---4---0---2---|
E|-|-3---------1-3-----------------------------------|
   |_                    (x7)                       _|

     *       *       *       *       *       *    
G|-|-----------------------------0-------------------|
D|6|-----------------3---------------1---3-------1---|
A|4|-2---------0-2---------------------------4-------|
E|-|-------------------------------------------------|
   |_                    (x4)                       _|

     *       *       *       *       *       *    
G|-|-----------------------------4-------------------|
D|6|-----------------7---------------5---7---3---5---|
A|4|-6---------4-6-----------------------------------|
E|-|-------------------------------------------------|
   |_                    (x6)                       _|

     *       *       *       *       *       *    
G|-|-------------------------------------------------|
D|6|-----------------------------1-------------------|
A|4|-----------------4---------------2---4---0---2---|
E|-|-3---------1-3-----------------------------------|
   |_                    (x6)                       _|

     *   *   *   *       *       *       *       *       *       *   
G|-|-----------------|-|-------------------------------------------------|
D|4|-----------------|6|-------------------------------------------------|
A|4|-----------------|4|---3-------5-------3-----5-----------------------|
E|-|---3---3---3---3-|-|-----3-------5-------3-------5-------------------|
   |_     (x4)      _|


************************************************************************
************************************************************************
            

comments powered by Disqus
↑ Back to top | Gentle Giant Bass for The House The Street The Room. Lyrics for acoustic guitar and electric guitar. Tablatures and chords are parodies/interpretations of the original songs. You may use it for private study, scholarship, research or language learning purposes only