» » »

Gentle Giant, In A Glass House Tabs (ver.1)

Artists:  A B C D E F G H I J K L M N O P Q R S T U V W X Y Z # 

In A Glass House Tabs (ver.1)

Gentle Giant Tabs
Rating:
0/5 (0 votes)
In A Glass House lessons Tabs too difficult? Try these video lessons and learn fast
                PLAY THIS SEQUENCE 7 TIMES

 6/8

 Gtr 1 (right stereo channel)
|----------------------------------|-------------------------------------|--|
|-------12-13---12-----------------|-15-14-12----------------------------|--|
|----14------------12----14---12-11|----------12-11----------------------|--|
|-12------------------12-----------|----------------14-12h14p12----14-12-|--|
|----------------------------------|----------------------------14-------|--|
|----------------------------------|-------------------------------------|--|
| Gtr 2 (left stereo channel)      |                                     |  |
|----------------------------------|-------------------------------------|--|
|----------------------------------|-------------------------------------|--|
|-----------5----4-----------------|--7--6--4----------------------------|--|
|-----7-------------5-----7----4---|-----------5--4----------------------|--|
|--7-----7-------------5----------5|-----------------7---5h7p5------7--5-|--|
|----------------------------------|-----------------------------7-------|--|
| Gtr 3 (right stereo channel)     |                                     |  |
|----------------------------------|-------------------------------------|--|
|----------------------------------|-------------------------------------|--|
|---------<7~>---------------------|-------------------------------------|--|
|-----<7>--------------------------|-------------------------------------|--|
|-<7>------------------------------|-------------------------------------|--|
|----------------------------------|-------------------------------------|--|

 6/8 - slower

|--3-----------|-3-----------|-3-----------|-----0---1-3-|--------------|
|--3---1---3-1-|-3---1---3-1-|-3---1---3-5-|-6---0---1-3-|-1---3---5-6--|
|--3---2---3-0-|-3---2---3-0-|-3---2---3-5-|-7---0---2-3-|-2---3---5-7--|
|--5---2---3-2-|-5---2---3-2-|-5---2---3-5-|-7---2---3-5-|-2---3---5-7--|
|--5---0---1-3-|-5---0---1-3-|-5---0---1-3-|-5---2---3-5-|-0---1---3-5--|
|--3-----------|-3-----------|-3-----------|-------------|--------------|

                                            4/8
|--3-----------|-3-----------|-3-----------|-3-------|
|--3---1---3-1-|-3---1---3-1-|-3---1---3-1-|-3---1---|
|--3---2---3-0-|-3---2---3-0-|-3---2---3-0-|-3---2---|
|--5---2---3-2-|-5---2---3-2-|-5---2---3-2-|-5---2---|
|--5---0---1-3-|-5---0---1-3-|-5---0---1-3-|-5---0---|
|--3-----------|-3-----------|-3-----------|-3-------|
Looking through the window can you tell me what you see.
You're sure you're really seeing what is meant to be a Glass
a mirror to reflect what I conspire a vision, image I desire.

                         __________________________  ___________________
 7/8                     | 1. 8/8                    | 2. 7/8
|------------------------|---------------------------|---------------------|
|------------------------|---------------------------|---------------------|
|*-----------------------|--------------------------*|---------------------|
|*-8~-------7-8------7-8-|-8~---------7h8-----7h8-7h*|-8~-------7-8-----7--|
|------8-7---------------|-----8-7-------------------|-----8-7-------------|
|---------------6-8------|----------------6h8----6---|--------------6-8----|

 10/8 + 6/8
                                              ______________________________
 Mandolin 1 (right stereo channel)            | 1-2.
|---------------------------------------------|----------7-9-7--------------|
|---------------------------------4---2-0-2~--|-9-7-9-10-------10-9-7---7---|
|*----------2b---------------2b---4---4-2-4~--|-----------------------7---6*|
|*--4-4-2-4----4-----4-4-2-4----4---4---------|----------------------------*|
|---------------------------------------------|-----------------------------|
|---------------------------------------------|-----------------------------|
| Mandolin 2 (left stereo channel)            |                             |
| --only 2-3 time--                           |                             |
|-----------5----------------5---7------------|--------2-3-5-3-2---3-2------|
|---7-7-5-7---7------7-7-5-7---7---7--5-3-5~--|--5-3-5-----------5-----3----|
|*--------------------------------------------|----------------------------*|
|*--------------------------------------------|----------------------------*|
|---------------------------------------------|-----------------------------|
|---------------------------------------------|-----------------------------|

 6/8

 Mandolin 1 (right stereo channel)
_______________         ________ _______           three times
| 3.                    | 1-2.   | 3. (+1/8)   6/8          tremolo
|-----------7-9-7------7----7----|-----------|--12-10-12-14-15151515--|
|--9-7-9-10-------10-8---10------|-10-7-8----|------------------------|
|*------------------------------*|--------9--|------------------------|
|*------------------------------*|-----------|------------------------|
|--------------------------------|-----------|------------------------|
|--------------------------------|-----------|------------------------|
| Mandolin 2 (left stereo channel)|          |                        |
|---------2-3-5-3-2---3-2--------|--2--------|------------------------|
|---5-3-5-----------5-----3------|----5-3-0--|---5--3--5--7--8~-------|
|*------------------------------*|-----------|------------------------|
|*------------------------------*|-----------|------------------------|
|--------------------------------|-----------|------------------------|
|--------------------------------|-----------|------------------------|

 3/8

|-------------------<7>-<5>------|
|---------------<7>---------<5>--|
|-----------<7>------------------|
|-------<7>----------------------|
|---<7>--------------------------|
|--------------------------------|

 PLAY THIS SEQUENCE 4 TIMES

 6/8

 Gtr 1 (right stereo channel)
|----------------------------------|-------------------------------------|--|
|-------12-13---12-----------------|-15-14-12----------------------------|--|
|----14------------12----14---12-11|----------12-11----------------------|--|
|-12------------------12-----------|----------------14-12h14p12----14-12-|--|
|----------------------------------|----------------------------14-------|--|
|----------------------------------|-------------------------------------|--|
| Gtr 2 (left stereo channel)      |                                     |  |
|----------------------------------|-------------------------------------|--|
|----------------------------------|-------------------------------------|--|
|-----------5----4-----------------|--7--6--4----------------------------|--|
|-----7-------------5-----7----4---|-----------5--4----------------------|--|
|--7-----7-------------5----------5|-----------------7---5h7p5------7--5-|--|
|----------------------------------|-----------------------------7-------|--|
| Gtr 3 (right stereo channel)     |                                     |  |
|----------------------------------|-------------------------------------|--|
|----------------------------------|-------------------------------------|--|
|---------<7~>---------------------|-------------------------------------|--|
|-----<7>--------------------------|-------------------------------------|--|
|-<7>------------------------------|-------------------------------------|--|
|----------------------------------|-------------------------------------|--|

 No guitars for 4 bars of 6/8

 No guitars for 1 bar of 7/8 + 3 bars of 6/8
Standing on the ice believing all I'm searching for
 No guitars for 1 bar of 7/8 + 3 bars of 6/8
Close your cloudy eyes and chase all that you did before
 No guitars for 1 bar of 7/8 + 3 bars of 6/8
Standing on the ice believing all I'm for
 No guitars for 1 bar of 7/8 + 2 bars of 6/8
Close your cloudy eyes and chase all that you did before

 6/8 - slower                                4/8
|--3-3---------|-3-3---------|-3-3---------|-3-3------|
|--3-3-1-1-3-1-|-3-3-1-1-3-1-|-3-3-1-1-3-1-|-3-3-1-1--|
|--3-3-2-2-3-0-|-3-3-2-2-3-0-|-3-3-2-2-3-0-|-3-3-2-2--|
|--5-5-2-2-3-2-|-5-5-2-2-3-2-|-5-5-2-2-3-2-|-5-5-2-2--|
|--5-5-0-0-1-3-|-5-5-0-0-1-3-|-5-5-0-0-1-3-|-5-5-0-0--|
|--3-3---------|-3-3---------|-3-3---------|-3-3------|
Living in a glass house shielding all that's meant for me
Can you clear the shade and can you tell me what you see.


 7/8                       8/8
|------------------------|--------------------------|
|------------------------|--------------------------|
|*-----------------------|--------------------------|
|*-8~-------7-8------7-8-|-8~--------7h8-----7h8-7h-|
|------8-7---------------|-----8-7------------------|
|---------------6-8------|---------------6h8----6---|
                                              _____________________
 8/8                         12/8             | 1.
|--------------------------|--------------------------------------|
|--------------------------|--------------------------------------|
|--------------------------|-------------------------------------*|
|--8~---------78--78--78---|-8~--------7h8---7--8---7h8---7--8--7*|
|------8-7-----------------|-----8-7------------------------------|
|---------------68--68--68-|--------------6h8----6h8---6h8----6---|

 10/8 + 6/8
_______________
|  2.                                         ______________________________
| Mandolin 1 (right stereo channel)           | 1-2.
|---------------------------------------------|----------7-9-7--------------|
|---------------------------------4---2-0-2~--|-9-7-9-10-------10-9-7---7---|
|*----------2b---------------2b---4---4-2-4~--|-----------------------7---6*|
|*--4-4-2-4----4-----4-4-2-4----4---4---------|----------------------------*|
|---------------------------------------------|-----------------------------|
|---------------------------------------------|-----------------------------|
| Mandolin 2 (left stereo channel)            |                             |
| --only 2-3 time--                           |                             |
|-----------5----------------5---7------------|--------2-3-5-3-2---3-2------|
|---7-7-5-7---7------7-7-5-7---7---7--5-3-5~--|--5-3-5-----------5-----3----|
|*--------------------------------------------|----------------------------*|
|*--------------------------------------------|----------------------------*|
|---------------------------------------------|-----------------------------|
|---------------------------------------------|-----------------------------|

 6/8

 Mandolin 1 (right stereo channel)
_______________         ________ _______           three times
| 3.                    | 1-2.   | 3. (+1/8)   6/8          tremolo
|-----------7-9-7------7----7----|-----------|--12-10-12-14-15151515--|
|--9-7-9-10-------10-8---10------|-10-7-8----|------------------------|
|*------------------------------*|--------9--|------------------------|
|*------------------------------*|-----------|------------------------|
|--------------------------------|-----------|------------------------|
|--------------------------------|-----------|------------------------|
| Mandolin 2 (left stereo channel)|          |                        |
|---------2-3-5-3-2---3-2--------|--2--------|------------------------|
|---5-3-5-----------5-----3------|----5-3-0--|---5--3--5--7--8~-------|
|*------------------------------*|-----------|------------------------|
|*------------------------------*|-----------|------------------------|
|--------------------------------|-----------|------------------------|
|--------------------------------|-----------|------------------------|

 3/8
 Electric gtr
|---------------|
|---------------|
|----------6\---|
|------4-7------|
|----5----------|
|--0------------|

PLAY THIS SEQUENCE 4 TIMES

 7/8                      10/8
|-----------------------|--------------------------------|
|-----------------------|----------------------------2\--|
|--------------2--1-----|--------------------------2-----|
|----4-4-----2------2h4-|--4-4p2-----------------4-------|
|--------2h4------------|--------4p2-2~--------4---------|
|--2--------------------|2---------------3~--2-----------|

 12/8
|------------------------------------|
|------------------------------------|
|--------------4~--4~--2~-2-4p1------|
|----4-4-----2-4~--2~--0~-------2h4--|
|--------2h4-------------------------|
|--2---------------------------------|

Shadow fills the light until the glass house becomes the
night
Dark is gleaming or am I dreaming

Running everywhere
Seeing clearly when I dare
Is it today or is it your way

And the moon must fall
Inspiration waits for your call for you to get a silhouette

 16/8
|----------------------------------------------|
|----------------------------------------------|
|--------------4~--4~--2~-2-4p1----------------|
|----4-4-----2-4~--2~--0~-------2--5~-5-7p4----|
|--------2h4-----------------------3~-------5--|
|--2-------------------------------------------|

 7/4

 Acoustic gtr 1 (right stereo channel)
|----2~---2-3-2------2-3-0~----2-0-----3-3----|
|----3~----------------0-1~----0---3---3-3----|
|*-------------------2---2~------2-0---------*|
|*-0---------------0-------------------------*|
|---------------------------------------------|
|---------------------------------------------|
| Acoustic gtr 2 (left stereo channel)        |
|---------------------------------------------|
|------------------------------------------0--|
|*---7~---0-2-------------------------0--2---*|
|*-0----0-----0~-0-2------------0-2----------*|
|--------------------0--0-2-3~------3---------|
|---------------------------------------------|
Narrow the field aim in any direction
Do what I feel just to see my reflection

 6/4

 Acoustic gtr 1 (right stereo channel)   7/8
|------0-------------------------------|---------------------|
|------0----------------------2-3-5--3-|---------------------|
|----4---0-2-4--2-0----0-2-------------|------------2--1-----|
|----4--------------4------------------|--4-4-----2------2-4-|
|--2-----------------------4-----------|------2-4------------|
|--------------------------------------|2--------------------|
| Acoustic gtr 2 (left stereo channel) |                     |
|--------------------------------------|---------------------|
|-----------------------------2-3-5--3-|---------------------|
|----4-0-----0-------------------------|------------2--1-----|
|----4---2-4----4-2-0--2-4-------------|--4-4-----2------2-4-|
|--2-----------------------0-----------|------2-4------------|
|--------------------------------------|2--------------------|

 10/8
 Acoustic gtr 1 (right stereo channel)   12/8
|--------------------------------------|----------------------------------|
|----------------------------------2\--|----------------------------------|
|--------------------------------2-----|-------------4~--4~--2~-2-4p1-----|
|----4-4-2---------------------4-------|---4-4-----2-4~--2~--0~-------2h4-|
|----------4---2~------------4---------|-------2h4------------------------|
|--2-----------------3~----2-----------|-2--------------------------------|
| Acoustic gtr 2 (left stereo channel) |                                  |
|------------------------------------5-|----------------------------------|
|--------------------------------2-5---|----------------------------------|
|--------------2-----4-1---1-2-4-------|-------------/4~---2-1-------???--|
|----4-4p2-------4-2-----2-------------|---4-4-----2-/4~-----2-4-2~--???--|
|----------4p2-------------------------|-------2h4------------------------|
|--2-----------------------------------|-2--------------------------------|

 Electric gtr
         7/8                      10/8
-------|------------------------|--------------------------------|
-------|------------------------|----------------------------2\--|
-------|*--------------2--1-----|--------------------------2-----|
-----2-|*----4-4-----2------2h4-|--4-4p2-----------------4-------|
-2-4---|---------2h4------------|--------4p2-2~--------4---------|
-------|---2--------------------|2---------------3~--2-----------|
                      ______________ _____________
 12/8                 | 1.           | 2.  (+4/8)
|------------------------------------|-------------------------|
|------------------------------------|-------------------------|
|--------------4~--4~--2~-2-4p1-----*|-2~-2-4p1----------------|
|----4-4-----2-4~--2~--0~-------2h4-*|-0~-------2--5~-5-7p4----|
|--------2h4-------------------------|-------------3~-------5--|
|--2---------------------------------|-------------------------|
Any turn I know
Disappearing everywhere I go
I look to you for what I do

And only then I see
That the glass house is just for me
And any time is never mine

 7/4

 Acoustic gtr 1 (right stereo channel)
|----2~---2-3-2------2-3-0~----2-0-----3-3----|
|----3~----------------0-1~----0---3---3-3----|
|*-------------------2---2~------2-0---------*|
|*-0---------------0-------------------------*|
|---------------------------------------------|
|---------------------------------------------|
| Acoustic gtr 2 (left stereo channel)        |
|---------------------------------------------|
|------------------------------------------0--|
|*---7~---0-2-------------------------0--2---*|
|*-0----0-----0~-0-2------------0-2----------*|
|--------------------0--0-2-3~------3---------|
|---------------------------------------------|
Narrow the field aim in any direction
Do what I feel just to see my reflection

 6/4

 Acoustic gtr 1 (right stereo channel)   7/4
|------0-------------------------------|------------------------------|
|------0----------------------2-3-5--3-|------------------------------|
|----4---0-2-4--2-0----0-2-------------|---------------------------2--|
|----4--------------4------------------|--4-4-----2----4---4-4--------|
|--2-----------------------4-----------|------2h4--------------2h4----|
|--------------------------------------|2----------------2------------|
| Acoustic gtr 2 (left stereo channel) |                              |
|--------------------------------------|------------------------------|
|-----------------------------2-3-5--3-|------------------------------|
|----4-0-----0-------------------------|---------------------------2--|
|----4---2-4----4-2-0--2-4-------------|--4-4-----2----4---4-4--------|
|--2-----------------------0-----------|------2-4--------------2h4----|
|--------------------------------------|2----------------2------------|

 7/4

 Slide gtr
|-------10--8/10-10\8------------------------10----10-/14-----|
|--//10---------------8\7-5/7-3--5/6/7-10-------10------------|
|--//-------------------------------------11------------------|
|-------------------------------------------------------------|
|-------------------------------------------------------------|
|-------------------------------------------------------------|
| Acoustic gtr                                                |
|-------------------------------------------------------------|
|-----------------------------------------------------------0-|
|-----7~------0--2-------------------------------------0--2---|
|--0-------0--------0~---0--2-----------------0--2------------|
|------------------------------0---0--2--3~---------3---------|
|-------------------------------------------------------------|

 Slide gtr                                          6/4
|/14----------------------------------------------|-------------------------|
|----15-13-----------/15-13-----------------------|------12\----------------|
|-------12----12-14---------14\13\12-14--14-12-11-|10\9---------------------|
|----------12-------------------------------------|-------------------------|
|-------------------------------------------------|-------------------------|
|-------------------------------------------------|-------------------------|
| Acoustic gtr                                                              |
|---------------------------------------------|-----------------------------|
|--------------------------------------------0|----------------------2-3-5-3|
|--7~----0-2----------------------------0--2--|-4-0-----0-------------------|
|0-----0-----0~--0-2-------------0-2----------|-----2-4---4-2-0-2-4---------|
|--------------------0---0-2-3~------3--------|2--------------------0-------|
|---------------------------------------------|-----------------------------|

 7/8
                     ___ _____
 Acoustic gtr 1      |1-2| 3. El. gtr 1         9/8
|------------------------|--------------------|-------------------------|
|------------------------|--------------------|-------------------------|
|*-------------0--------*|-6-6---6-4-----4----|-6-6---4-4-----4---------|
|*----2-2----0----4-0h2-*|-6-6-------7-6---4-6|-6-6-------7-6---4-6---6-|
|--------0h2-------------|-4-4----------------|-4-4-----------------4---|
|--0---------------------|--------------------|-------------------------|
| Acoustic gtr 2         | El. gtr 2          |                         |
|------------------------|--------------------|-------------------------|
|------------------------|---------------5----|---------------5---------|
|--------------0--------*|-6-6-------6-4---3-4|-6-6-----4-6-4---3-4---4-|
|----2-2-----0----4-0h2-*|-6-6---6-4----------|-6-6---6-------------6---|
|--------0h2-------------|-4-4----------------|-4-4---------------------|
|--0---------------------|--------------------|-------------------------|


 REPEAT AND FADE OUT

 Electric gtr
 7/8                      10/8
|-----------------------|-------------------------------------|
|-----------------------|--------------------------------2\---|
|--------------2--1-----|------------------------------2------|
|----4-4-----2------2h4-|--4-4p2---------------------4--------|
|--------2h4------------|--------4p2-2~------------4----------|
|--2--------------------|2-----------------3~----2------------|
| Acoustic gtr          |                                     |
|-----------------------|----------------------------------5--|
|-----------------------|------------------------------2-5----|
|--------------2--1-----|------------2-----4-1---1-2-4--------|
|----4-4-----2------2-4-|--4-4p2-------4-2-----2--------------|
|--------2-4------------|--------4p2--------------------------|
|--2--------------------|2------------------------------------|

 Electric gtr
 12/8
|------------------------------------|
|------------------------------------|
|--------------4~--4~--2~-2-4p1------|
|----4-4-----2-4~--2~--0~-------2h4--|
|--------2h4-------------------------|
|--2---------------------------------|
| Acoustic gtr                       |
|------------------------------------|
|------------------------------------|
|--------------/4~---2-1-------???---|
|----4-4-----2-/4~-----2-4-2~--???---|
|--------2h4-------------------------|
|--2---------------------------------|

Shadow fills the light until the glass house becomes night
Dark is gleaming or am I dreaming

Running everywhere
Seeing clearly when I dare
Is it today or is it your way

And the moon must fall
Inspiration waits for your call for you to get a silhouette.

------------------------------------------------------------------------------
7~     hold (longer than other notes)
7h9    hammer-on
9p7    pull-off
7(9)   bend
(9)7   release
(9)r   release
7/9    slide up
9\7    slide down
<7>    natural harmonics
7tr9   trill
*      beat
            
Submit corrections

comments powered by Disqus
↑ Back to top | Gentle Giant Tabs for In A Glass House. Lyrics for acoustic guitar and electric guitar. Tablatures and chords are parodies/interpretations of the original songs. You may use it for private study, scholarship, research or language learning purposes only