» » »

Trasero Bass tabs (ver.1)

Artists:  A B C D E F G H I J K L M N O P Q R S T U V W X Y Z # 

Trasero Bass tabs (ver.1)

Genitallica
Rating:
0/5 (0 votes)

Tabs too difficult? Try these video lessons and learn fast.
                En el principio de la rola solo la guitarra
El bajo no entra hasta k la rola ya haya dicho “por tu trasero mi amor”

RIF 1 (x2)
g--------------------------------------------------------|
d--------------------------------------------------------|
a---------5-5-5-5-5-5--3-3-3-3-3-3-3--5-5-5-5-5-5--------|
e-3-3-3-3------------------------------------------------|

Acá va la parte de ska como a los 39 segundos de la canción, cuando diga ”por tu trasero 
amor” esto es el coro ya la parte de ska

RIF 2 coro (x2)
g--------------------------------------------------------|
d----------------4--7--4---------2—5------2--4--7--------|
a---2--5--2----5---------5---3-------3--5---------5------|
e-3--------3---------------------------------------------|

A los 51 segundos de la  rola dice “yo quiero que te comas, al mundo entero”
y va esto escuchen los tiempos de la bataca es un tipo final

g--------------------------------------------------------|
d--------------------------------------------------------|
a---5--5-----5--5---6-6-6-8-9----------------------------|
e--------------------------------------------------------|

a los 57 segundos va de nuevo el rif 1

RIF 1 (x2)
g--------------------------------------------------------|
d--------------------------------------------------------|
a---------5-5-5-5-5-5--3-3-3-3-3-3-3--5-5-5-5-5-5--------|
e-3-3-3-3------------------------------------------------|

a los 1:20 segundos va de nuevo el ska

RIF 2 coro x2
g--------------------------------------------------------|
d----------------4--7--4---------2—5------2--4--7--------|
a---2--5--2----5---------5---3-------3--5---------5------|
e-3--------3---------------------------------------------|

a los 1:33 segundos termina el ska y va como un rematito de bataca y entras con el bajo 
diga “que se meta un pepino”

RIF 3 (x2)

g------------------------------------------------------|
d----------------------------—------------2--5---2—5---|
a----2--5----2--5-----2--5-----2--5----3-------3-------|
e--3-------3-------3--------3--------------------------|

 a los 1:45 dice  “sin vaselina , sin vaselina” de acuerdo como lo marca la voz
RIF 4 (X 2)

g—-----------------------------------------------------|
d------------------------------------------------------|
a--------------------3-3-3-3---------------------------|
e--3-3-3-3--3-3-3-3------------3-3-3-3-----------------|


A los 1:58 segundos va otra vez el rif 3 este

RIF 3

g------------------------------------------------------|
d----------------------------—------------2--5---2—5---|
a----2--5----2--5-----2--5-----2--5----3-------3-------|
e--3-------3-------3--------3--------------------------|


Va otra vez el rif 3 cuando dice “por tu trasero, por tu trasero mi amor” y se espera

g—-------------------------------------------------------|
d--------------------------------------------------------|
a-3-3-3-3-3-3-3-3--5---5--7----17--17--15--15--14—14-----|
e-----------------------------------------------------15-|

Ya después de eso va otra vez la parte de ska osea el coro

RIF 2 coro
g--------------------------------------------------------|
d----------------4--7--4---------2—5------2--4--7--------|
a---2--5--2----5---------5---3-------3--5---------5------|
e-3--------3---------------------------------------------|

Ya el final la letra dice”al mundo entero al mundo entero, yo kieor k te comas y marcas la ultima nota”

Fin

g--------------------------------------------------------|
d--------------------------------------------------------|
a--5-5----5-5--------------------------------------------|
e---------------3----------------------------------------|

Espero que la saquen no tiene nada de ciencia ese rola si tienen dudas mi mail es 
me llamo Ernesto
            
Tabs too difficult? Try these video lessons and learn fast.


comments powered by Disqus
↑ Back to top | Tablatures and chords are parodies/interpretations of the original songs. You may use it for private study, scholarship, research or language learning purposes only