» » »

Borracho Tabs (ver.1)

Artists:  A B C D E F G H I J K L M N O P Q R S T U V W X Y Z # 

Borracho Tabs (ver.1)

Genitallica
Rating:
4/5 (4 votes)

Hard to play? Try these video lessons and learn fast.
                (Intro)
1-----------------------------------------------------------------------|
2----------2--2-----2----2-------------------------3------3--------3----|
3----------2--2-----2----2-------------------------2------2--------2----|
4-----------------------------------------------------------------------|
5------0--------------0---------0---------------------------------------|
6----------------0-------------------4----2----0------0--------0--------|

1.----------------------------------------------------------------------------|
2.----------------------------------------------------------------------------|
3.----------------------------------------------------------------------------|
4.----------------------------------------------------------------------------|
5.-----------------0-0----0------------------------------0---0-0--------------|
6.---0-----2----4------------4---2--0--0------0----2--4----------4--2--0---0--|

please rate this tab/ por favor ponga un rate a esta tabletura

thank you /gracias por su attention.

age 13
            
Hard to play? Try these video lessons and learn fast. | Correct




comments powered by Disqus
↑ Back to top | Tablatures and chords are parodies/interpretations of the original songs. You may use it for private study, scholarship, research or language learning purposes only