>
 >
Lazer Bitch

Lazer Bitch Guitar Tabs

Genghis Tron - Lazer Bitch chords, tabs, tablatures, lyrics

Guitar lessons | Add/correct | Request | Top 50 tabs Artists:  A B C D E F G H I J K L M N O P Q R S T U V W X Y Z 0-9

Lazer Bitch Guitar Tabs – Genghis Tron

CD, Sheet music, Poster

Do you like Lazer Bitch? Share with your friends now
Tabs
----------------------------------------------------------------------------
----------------------------------------------------------------------------

Tuning: i tabbed it out in standard d flat but im guessin you can move the whole tab 
to play with open notes aswell.

Note: i got lazy with the rhythm as in tab it doesnt make sense anyhoo. so figure it out 
im sure your big enough now.

  --Techno Bit--

  Riff 1: x1
e|--------------------------------------------------------------------------|
B|--------------------------------------------------------------------------|
G|--------------------------------------------------------------------------|
D|---------5---------------------2--------------------5---------------------|
A|-----7-7---5-5-7-5---------5-5---3-3-5-3-2------7-7---5-5-7-5-------------|
E|-5-5---------------8---3-3------------------5-5---------------8-----------|

e|--------------------------------------------------------------------------|
B|--------------------------------------------------------------------------|
G|--------------------------------------------------------------------------|
D|---------2-----------5----------------------------------------------------|
A|-----5-5---3-3-5-3-2------------------------------------------------------|
E|-3-3----------------------------------------------------------------------|

  Riff 2: x1
e|--------------------------------------------------------------------------|
B|--------------------------------------------------------------------------|
G|---------------------------7---7/9------7-5-4-----------------------------|
D|----------------5-3-2--5-5---5------3-3-----------------------------------|
A|-----7-5-3--3-3-----------------------------------------------------------|
E|-5-5----------------------------------------------------------------------|

e|--------------------------------------------------------------------------|
B|----------------------------------------3-5-6-----------------------------|
G|---------------------------7---7/9----------------------------------------|
D|----------------5-3-2--5-5---5------3-3-----------------------------------|
A|-----7-5-3--3-3-----------------------------------------------------------|
E|-5-5----------------------------------------------------------------------|

  --Heavy Bit--

  Riff 3:Rhythm Bit-not sure how to tabb it so play along with the track
  Uses These Notes:
e|--------------------------------------------------------------------------|
B|--------------------------------------------------------------------------|
G|--------------------------------------------------------------------------|
D|--------------------------------------------------------------------------|
A|-7------------------------------------------------------------------------|
E|-5------------------------------------------------------------------------|

  Simple?

  --Grindy Bit--

  Riff 4: x2
  Tremmolo in these sets on notes in order along with the song.
  play the first strumm off the chord harder than the following
  (helps with the rhythm)

e|--------------------------------------------------------------------------|
B|--------------------------------------------------------------------------|
G|-11--12--13---14----------------------------------------------------------|
D|-8---9---10---11----------------------------------------------------------|
A|--------------------------------------------------------------------------|
E|--------------------------------------------------------------------------|

  Back To Rhythm

  Riff 5: x1

e|--------------------------------------------------------------------------|
B|--------------------------------------------------------------------------|
G|--------------------------------------------------------------------------|
D|--------------------------------------------------------------------------|
A|----------------------------------------5-5-5-5-5-5-----------------------|
E|-5-5555555555-8-8-8-8-8-8--3-3333333333-----------------------------------|
     ..........                ..........

e|--------------------------------------------------------------------------|
B|--------------------------------------------------------------------------|
G|--------------------------------------------------------------------------|
D|--------------------------------------------------------------------------|
A|----------------------------------------5-5-5-5-5-3-----------------------|
E|-5-5555555555-8-8-8-8-8-8--3-3333333333-----------------------------------|
     ..........                ..........

  Then Play:
  riff 4: x2
  riff 3: For a Little While :)
  Leading into...
  The Solo!
  Its Pretty Random so i am certain this is wrong. but it sounds like it
  and is what i like to play along with.

e|-----------------------------------------12-------------------------------|
B|--------9-0-------------9-0-12-0------------11-13-14----------------------|
G|-12-0-7------10-0-9-0-7-----------12-9p8----------------------------------|
D|--------------------------------------------------------------------------|
A|--------------------------------------------------------------------------|
E|--------------------------------------------------------------------------|
    T           T   T          T     T      T  T  T  T

e|----------------------14-0-10h13-0-10h13----------------------------------|
B|-----------14-0-10h13-----------------------------------------------------|
G|-14-0-9h12----------------------------------------------------------------|
D|--------------------------------------------------------------------------|
A|--------------------------------------------------------------------------|
E|--------------------------------------------------------------------------|
    T         T          T

  Repeat this twice and fade out on the third
  accompanied by the rhythm in riff 3

  This is my first tab so cut me some slack. any advice or corrections send
  to my e-mail.
  Genghis Tron are good and any help here is spreading the love.
  if anyone can be bothered to tab out the solo fully send a copy to me as
  i want to learn it properly aswell but just dont have the patience.
  Most improrantly everybody have fun and play responsibly!
  ...

| .  Palm Mute
| T  Tap
| /  slide up
| \  slide down
| h  hammer-on
| p  pull-off
| ~  vibrato
| +  harmonic
| x  Mute note
============================================================================





Comments


Popular Genghis Tron tabs & chords
Asleep On The Forest Floor Tabs
Board Up The House Tabs
Laser Bitch Tabs
Ride The Steambolt Tabs


Song lyrics



↑ Back to top | Tablatures and chords are parodies/interpretations of the original songs. You may use it for private study, scholarship, research or language learning purposes only
© 2014 AZChords.com Contact us | Privacy policy | DMCA | Add/correct tabs | Request tabs | Top 50 tabs