>
 >
Board Up The House

Board Up The House Guitar Tabs

Genghis Tron - Board Up The House chords, tabs, tablatures, lyrics

Guitar lessons | Add/correct | Request | Top 50 tabs Artists:  A B C D E F G H I J K L M N O P Q R S T U V W X Y Z 0-9

Board Up The House Guitar Tabs – Genghis Tron

CD, Sheet music, Poster

Do you like Board Up The House? Share with your friends now
Tabs
Band: Genghis Tron
Tuning: D A D G B e

Note: I used this video as reference 

Riff 1 (0:14)
e [----------------------------------]
B [----------------------------------]
G [----------------------------------]
D [----------------------------------]
A [----------------------------------]
D [--12p7p0--12p7p0--12p7p0--12p7p0--]
     t       t       t       t

Riff 2 (0:27)
e [----------------------------------]
B [----------------------------------]
G [----------------------------------]
D [----------------------------------]
A [----------------------------------]
D [--12p7p3--12p7p3--12p7p3--12p7p3--]
     t       t       t       t

Riff 1 (0:41)
Riff 2 (0:55)

Riff 3 (1:09)
e [-----------------------------------]
B [-----------------------------------]
G [-----------------------------------]
D [-----------------------------------]
A [-----------------------------------]
D [--12p10p0--12p3p0--12p7p0--12p1p0--]x2
     t        t       t       t
Last time
e [-----------------------------------]
B [-----------------------------------]
G [-----------------------------------]
D [-----------------------------------]
A [-----------------------------------]
D [--12p10p0-12p3p0-12p7p0-12p1p0h1~--]
     t       t      t      t

Riff 4 (1:16)
e [-------------------------------------------------]
B [-------------------------------------------------]
G [-------------------------------------------------]
D [-------------------------------------------------]
A [-------------------------------------------------]
D [--12p10p0--12p3p0--12p10--12p1p0--12p3p0--12p10--]
     t        t       t      t       t       t

e [-------------------------------------------------------]
B [-------------------------------------------------------]
G [-------------------------------------------------------]
D [-------------------------------------------------------]
A [---------------------------------------------h6----h6--]
D [--12p10p0--12p3p0--12p10--12p1p0--12p3p0--12----12-----]
     t        t       t      t       t       t     t

Riff 3 (1:33)
Riff 1 (1:36)
Riff 3 (1:40)

Riff 5 (1:43)
e [--------------------]
B [--------------------]
G [--------------------]
D [--0~--12~--0~--12~--]
A [--0~--12~--0~--12~--]
D [--0~--12~--0~--12~--]

Riff 4 (1:46)
Riff 3 (2:04)
Riff 1 (2:07)
Riff 3 (2:11)
Riff 5 (2:14)
Riff 3 (2:18)
Riff 1 (play at half time) (2:21)
Riff 3 (2:24)
Riff 5 (2:28)

Riff 6 (Palm mute all) (3:06)
e [-------------------------------------------------------------------]
B [-------------------------------------------------------------------]
G [-------------------------------------------------------------------]
D [-------------------------------------------------------------------]
A [-----------------------------------555-555-555-55-0-888-888-888-888]
D [-5555-333-555-0-3-777-777-777-77-3---------------------------------]

Riff 7 (4:08)
e [-----------------]
B [-----------------]
G [------------15\--]
D [--0~----0~-------]
A [--0~-5v-0~--13\--]
D [--0~----0~-------]x4
(4:22)
e [---------------------------]
B [---------------------------]
G [--8-(x12)-11-(x6)-14-(x6)--]
D [---------------------------]
A [--6-(x12)-9--(x6)-12-(x6)--]
D [---------------------------]
(4:29)
e [----------]
B [----------]
G [----------]
D [--12-7-0--]
A [----------]
D [----------]x16
(4:43)
e [--------------------------------]
B [--------------------------------]
G [--8-(x12)-11-(x6)-14-(x12)-14~--]
D [--------------------------------]
A [--6-(x12)-9--(x6)-12-(x12)-12~--]
D [--------------------------------]

Riff 8 (4:55)
e [-------------------------------------------------------------------]
B [-------------------------------------------------------------------]
G [--------7-----7-------------7-------------------------------7------]
D [--5-7-----7-5---7-5-----5-8---5-8-7-5-----7-5-8-----7-5-7-----5-8--]
A [------5-------------3-5---------------8-5-------5-8-------5--------]
D [-------------------------------------------------------------------]





Comments


Popular Genghis Tron tabs & chords
Asleep On The Forest Floor Tabs
Laser Bitch Tabs
Lazer Bitch Tabs
Ride The Steambolt Tabs


Song lyrics



↑ Back to top | Tablatures and chords are parodies/interpretations of the original songs. You may use it for private study, scholarship, research or language learning purposes only
© 2014 AZChords.com Contact us | Privacy policy | DMCA | Add/correct tabs | Request tabs | Top 50 tabs