» » »

Gene Vincent, Lotta Lovin' Tabs (ver.1)

Artists:  A B C D E F G H I J K L M N O P Q R S T U V W X Y Z # 

Lotta Lovin' Tabs (ver.1)

Gene Vincent Tabs
 Rating:
4/5 (4 votes)
Lotta Lovin' lessons Tabs too difficult? Try these video lessons and learn fast
                Tuning: Standard

Whatever was considered "freaky dancing" in the 50's, I'm
sure it was done to this song. Very sensual song by Gene
that ends up rockin' out during the solos. Again, I,IV,V
in the key of G. I like to use 7th chords
when playing these songs. But you don't have to.
You can use the regular chord if you want. Very simple 
song to play. Strums are not exact. Listen for the changes. 
Let's go!!


INTRO:
  G (light palm mute)
e|-------|
B|-------|
G|-4-----|
D|-5-----|
A|-5-----|
E|-3-----|

VERSE:

"Well, I want, I want a lotta lotta lovin,......."
   G
e|-------|
B|-------|
G|-4-----|
D|-5-----|
A|-5-----|
E|-3-----|

CHORUS:

"Well baby, can't you see that you were meant for me..."
  G7          C7              D7
e|-3-----------3--------------5-----|
B|-3-----------5--------------7-----|
G|-4-----------3--------------5-----|
D|-3-----------5--------------7-----|
A|-5-----------3--------------5-----|
E|-3--------------------------------|

Repeat VERSE
Repeat CHORUS

SECOND VERSE:

"Well, I want ya, I love ya, I need you so much
      C                 G               A        D7
e|-----8----------------3--------------5---------10-----|
B|---8---8------------3---3----------5---5-------10-----|
G|-9-------9---X2---4-------4--X2--6--------X2---11-----|
D|-----------------------------------------------10-----|
A|-----------------------------------------------12-----|
E|-----------------------------------------------10-----|

Repeat VERSE
Repeat CHORUS:

SOLO:

e|------------------|---------------------|
B|------------------|-----------------3^--|
G|---------3333333--|---------33333---3^--|
D|-----3---4444444--|------3--44444-------|
A|-5-5--------------|--5-5----------------|
E|------------------|---------------------|

e|--------------------------------------------3~--|
B|------3-----3-----3-----3-----3-5-6-5-3-----3~--|
G|-333--3--3--3--3--3--3--3--3--3-5-6-5-3--3--3~--|
D|-444-----4-----4-----4-----4-------------4------|
A|------------------------------------------------|
E|------------------------------------------------|

e|-6~--3-3-3-3-33-3-3-3--3~---|
B|-6~--3-3-5-3-33-5-3-3--3~---|
G|----------------------------|
D|----------------------------|
A|----------------------------|
E|----------------------------|

Repeat SECOND VERSE
Repeat VERSE

SOLO 2:

e|--------------------------|--------------------------------|
B|---------------3---3---3--|----------------3~------3-----3-|
G|--------33333--3-3-3-3-3--|--------33333---3~---3--3--3--3-|
D|-----3--44444----4---4----|-----3--44444--------4-----4----|
A|-5-5----------------------|-5-5----------------------------|
E|--------------------------|--------------------------------|

e|--------------------------------------------|
B|----------------3-----3------3-5-6-6~-5--33-|
G|--------33333---3--3--3--3---3-5-6-6~-5--33-|
D|-----3--44444------4-----4------------------|
A|-5-5----------------------------------------|
E|--------------------------------------------|

e|-6~--33-3-3-33-3-3~-----|
B|-6~--33-5-3-33-5-3~-----|
G|------------------------|
D|------------------------|
A|------------------------|
E|------------------------|

Repeat VERSE

END: (keep repeating until fade)

"Well, I need your lovin' aww you bet. Well I want your lovin......"

   D7   G7
e|-5-----3---|
B|-7-----3---|
G|-5-----4---|
D|-7-----3---|
A|-5-----5---|
E|-------3---|


That's it for that one guys. Up next is "Ooby Dooby" by Roy Orbison.
Let me know what you think! Have fun!

| /   slide up
| \   slide down
| h   hammer-on
| p   pull-off
| ~   vibrato
| +   harmonic
| x   Mute note
| ^   bend

************************************
            
Submit corrections

comments powered by Disqus
↑ Back to top | Gene Vincent Tabs for Lotta Lovin'. Lyrics for acoustic guitar and electric guitar. Tablatures and chords are parodies/interpretations of the original songs. You may use it for private study, scholarship, research or language learning purposes only