» » »

Gene Vincent, Dance To The Bop Tabs (ver.1)

Artists:  A B C D E F G H I J K L M N O P Q R S T U V W X Y Z # 

Dance To The Bop Tabs (ver.1)

Gene Vincent Tabs
Rating:
0/5 (0 votes)
Dance To The Bop lessons Tabs too difficult? Try these video lessons and learn fast
                Tuning: Standard

    Alright kids. Long time, no tab once again. We're going back to
where it all started, baby. And one of those places is Gene Vincent.
Simply put, no Gene Vincent, no Brian Setzer. Can't say enough
good things about Gene. His songs are energetic, fun to play,
and you should just end your life right now if his stuff doesn't
at least, make you want to shake your leg. Standard rock n roll
composition here. Your typical A,D,E progression. But the rhythm
of this piece makes it very fun to play. Strums are not exact.
Listen carefully for the changes. Lets go!!

INTRO: Key of A.

e|-------------------------|
B|-------------------------|
G|-------------------------|X3
D|-------0----/2---2-4-2---|
A|-0--4--------------------|
E|-------------------------|

VERSE:
   D7    A7          D7          E7           A7  D7 A7
e|-5-----5-----------5-------|--7-----------|-5---5--5----|
B|-7-----5-----------7-------|--9-----------|-5---7--5----|
G|-5-----6-----------5-------|--7-----------|-6---5--6----|
D|-7-----5-----------7-------|--9-----------|-5---7--5----|
A|-5-----7-----------5-------|--7-----------|-7---5--7----|
E|-------5-------------------|--------------|-5------5----|

CHORUS: (you can just play the chords here if you want)
"Dance, Dance Dance....dance, dance dance"

    A7
e|------------------------------|
B|------------------------------|
G|---------------2-2-2--0-------| X2
D|-----0--4-2-------------2-----|
A|-0-4----------------------4---|
E|------------------------------|

   D7
e|---------------------------|
B|--------------\3--1--------|
G|------2-4-2---------2------|
D|-0--4-----------------4----|
A|---------------------------|
E|---------------------------|

Repeat first section of the CHORUS 1 more time

   E7
e|---------------------------|
B|-------------2-2--5-4-2-2~-|
G|---------------------------|
D|---------------------------|
A|-----0-2-0-----------------|
E|-0-4-----------------------|

SOLO 1:

e|-7----/5555-/555-/5555------|-8--5---5--5---------------|
B|-7----/5555-/555-/5555------|-5--5---8--5--5--5---------|
G|----------------------------|--------------7--5--5------|
D|----------------------------|--------------------7------|
A|----------------------------|---------------------------|
E|----------------------------|---------------------------|

e|--------------------|---------------------|
B|-5-5-5-5--5-----5---|--5-5-5-5-5----5-----|
G|-5-7-8-7--5-5---5-5-|--5-7-8-7-5-5--5-5---|
D|------------7-----7-|------------7----7---|
A|--------------------|---------------------|
E|--------------------|---------------------|

e|/5-/5-/5-555-|-5-8~--5-8~-5-8~-5-8---------------------|
B|/5-/5-/5-555-|-5-5~--5-5~-5-5~-5-5----5--5-5-----5-----|
G|-------------|------------------------5--7-5--5--5-5---|
D|-------------|--------------------------------7----7---|
A|-------------|-----------------------------------------|
E|-------------|-----------------------------------------|

e|-/55555-----5--8~-------------|
B|-/55555-----5--5~--5----------|
G|-------------------5--7--5-5--|
D|---------------------------7--|
A|------------------------------|
E|------------------------------|

Repeat INTRO
Repeat VERSE
Repeat CHORUS

SOLO 2:

e|-777-----5--5--5---5---5-555-|-----5--8~-5-8~-5-8~------|
B|-777--/5--/5-/5--/5--/5--555-|-5-7----5~-5-5~-5-5-------|
G|-----------------------------|--------------------------|
D|-----------------------------|--------------------------|
A|-----------------------------|--------------------------|
E|-----------------------------|--------------------------|

e|-5-----5-------------------------------5-|--------------|
B|-5--5--5------5-----5--55555-5^--5-----5-|-8--7--6--5---|
G|-5--7--5--5---5--5--5--77777-7^--5--5----|-9--8--7--6---|
D|----------7------7------------------7----|--------------|
A|-----------------------------------------|--------------|
E|-----------------------------------------|--------------|

e|-8---5-----5-------------------------------------------|
B|--------8--5---------------5-----5-----5---------------|
G|--------------7--5--7---7^----7^----7^-----------------|
D|-------------------------------------------------------|
A|-------------------------------------------------------|
E|-------------------------------------------------------|

Repeat VERSE
Repeat CHORUS

END
                                              A7
e|-----5-8~-5-8~--5-----------------5---------5~---|
B|-----5-5~-5-5~--5-----------------5---------5~---|
G|-5-7------------5--7--5-----5--7------------6~---|
D|-------------------------7------------------5~---|
A|--------------------------------------------7~---|
E|--------------------------------------------5~---|

That's it for this one kids. I plan on tabbing more Gene
in the future. Up next though, will be the great Twenty
Flight Rock by Eddie Cochran. Let me know what you think!
Have fun!

************************************

| /   slide up
| \   slide down
| h   hammer-on
| p   pull-off
| ~   vibrato
| +   harmonic
| x   Mute note
| ^   bend

************************************
            

comments powered by Disqus
↑ Back to top | Gene Vincent Tabs for Dance To The Bop. Lyrics for acoustic guitar and electric guitar. Tablatures and chords are parodies/interpretations of the original songs. You may use it for private study, scholarship, research or language learning purposes only