>
 >
The Cinema Show 1

The Cinema Show 1 Guitar Tabs

Genesis - The Cinema Show 1 chords, tabs, tablatures, lyrics

Guitar lessons | Add/correct | Request | Top 50 tabs Artists:  A B C D E F G H I J K L M N O P Q R S T U V W X Y Z 0-9

The Cinema Show 1 Guitar Tabs – Genesis

CD, Sheet music, Poster

Do you like The Cinema Show 1? Share with your friends now
Tabs
Bob Paley



Gmaj7                               C
chocolate surprise                 
----7--------7--------7--------7--------8--------8--------8----10-8--
--7---7----7---7----7---7----7---7----8---8----8---8----8---8--8--8--
7--------7--------7--------7--------9--------9--------9--------------

Gmaj7                               C
Take a little trip back with         Father Tiresias
----7--------7--------7--------7--------8--------8--------8----10-8--
--7---7----7---7----7---7----7---7----8---8----8---8----8---8--8--8--
7--------7--------7--------7--------9--------9--------9--------------

Gmaj7                               C
----7--------7--------7--------7--------8--------8--------8----10-8--
--7---7----7---7----7---7----7---7----8---8----8---8----8---8--8--8--
7--------7--------7--------7--------9--------9--------9--------------

Gmaj7                               C
listen to the old one speak         of all he has lived through
----7--------7--------7--------7--------8--------8--------8----10-8--
--7---7----7---7----7---7----7---7----8---8----8---8----8---8--8--8--
7--------7--------7--------7--------9--------9--------9--------------

F                              Em            D              C
I have crossed between the     poles and for  me there's no mystery
----8-------8-------8------8-----7----7----7----5-------------3------
--10-10---10-10---10-10--10-10--8-8--8-8--8-8--7-------------5-5-----
10------10------10-----10------9----9----9----7-------------5--------

          B      C#m                      B      A
          Once a man like the sea I raged once a woman like the earth
--3----3----2------4----4----4----4----4----2-----0----0----0---3-0--
-5-5--5-5--4------5-5--5-5--5-5--5-5--5-5--4-----2-2--2-2--2-2--2-2--
5----5----4------6----6----6----6----6----4-----2----2----2----2-----
                                           
                 A7     A         C    Cdim    
I gave but there is in fact more earth than
-----------------3-----0-0--------0----2---
-----------------2-----2-2--------1----1---
-----------------2-----2-2--------0----2---
-----------------2-----2-2--------2----1---
----------------------------------3--------
----------------------------------3--------

________________________________________...........
| 1st ending(quiet interlude)
|sea
||-------13----13----13----13----13-||-||-------0----0----0----0----0-||
||-----11----11----11----11----11---||-||-----12---12---12---12---12--||
|| -0------------------------------ ||-|| --14---14---14---14---14--- ||
|| --12----12----12----12----12---- ||-|| -0------------------------- ||
||----------------------------------||-||-----------------------------||
||-----------(repeat 4X)------------||-||----------(repeat 4X)--------||
  (first guitar)


||---6---8---10---8---10---8--------||-||--13--15--13--15--13--15-----||
||---8---10--11---10--11---10-------||-||-----------------------------||
|| -------------------------------- ||-|| --------------------------- ||
|| -------------------------------- ||-|| --------------------------- ||
||----------------------------------||-||-----------------------------||
||-----------(repeat 4X)------------||-||---------(repeat 4X)---------||
  (second guitar)                      (this seems to fade out of the mix)

[REPEAT THE SECTION ABOVE 3X, then, only one guitar for the next part]

||-------0------0-------0-------0----------0-------0------0-------0--||
||-----6------6-------6-------6----------6-------6------6-------6----||
|| --7------7-------7-------7----------7-------7-------7------7----- ||
|| 0------0-------0-------0----------5-------5-------5------5------- ||
||-------------------------------------------------------------------||
||-------------------------------------------------------------------||
  (Repeat 4X; 2X without vocals, 2X with CSN-like vocals)


-----0----0----0----0------0----0----0----0---------------------------
----6----6----6----6------8----8----8----8----------------------------
---7----7----7----7------9----9----9----9-----back to verse (Gmaj7)
--8----8----8----8-----10---10---10---10------------------------------
_______________________________________
| 2nd ending  (instrumental..)
| (Strum chords)

G     Gmaj7   C     G  Gmaj7  C    Gm         Eb       C     D

                              | beginning of keyboard solo
C(choke)        Em(arpeggiate)| A5       G5       F#m__________etc.
                              |





Comments


Popular Genesis tabs & chords
Turn It On Again Bass Tabs
Dancing With The Moonlit Knight 1 Chords
In Too Deep 1 Chords
Please Dont Ask 1 Chords
Throwing It All Away 2 Chords
Dance On A Volcano Tabs
Dancing With The Moonlit Knight Tabs
Dancing With The Moonlit Knight Intro Tabs
I Know What I Like Tabs
Since I Lost You Ukulele


Song lyrics



↑ Back to top | Tablatures and chords are parodies/interpretations of the original songs. You may use it for private study, scholarship, research or language learning purposes only
© 2014 AZChords.com Contact us | Privacy policy | DMCA | Add/correct tabs | Request tabs | Top 50 tabs