» » »

Genesis, Supper Ready Lover Leap Tabs (ver.1)

Artists:  A B C D E F G H I J K L M N O P Q R S T U V W X Y Z # 

Supper Ready Lover Leap Tabs (ver.1)

Genesis Tabs
 Rating:
4/5 (4 votes)
Supper Ready Lover Leap lessons Tabs too difficult? Try these video lessons and learn fast
                "(1)
(Intro)
Supper's Ready  -     Genesis


Tony Banks (12-string guitar 3) Para muchos piensan que solamente esta tocando Steve 
(can*l derecho) and Mike (can*l izquierdo) en la primera parte.
Pero sin darse cuenta tambien Tony toca la primera parte en el mismo can*l de Steve (por 
eso cuesta escuchar su guitarra porque esta en el can*l de Steve y
mas encima es algo similar a la parte de el).



     E  E   E   E  E   E   E  E
E||---------2----------2---------|
B||-----5----------5----------5--|
G||--5----------5----------5-----|
D||--------(4)--------(4)--------|
A||------------------------------|
E||------------------------------|


  E  E   E   E  E   E   E  E
---------2----------2---------|
-----5----------5----------5--|
--5----------5----------5-----|
--------(4)--------(4)--------|
------------------------------|
------------------------------|


  E  E   E   E  E   E   E  E
---------2----------2---------|
-----5----------5----------5--|
--4----------4----------4-----|
--------(4)--------(4)--------|
------------------------------|
------------------------------|


  E  E   E   E  E   E   E  E
---------2----------2---------|
-----4----------4----------4--|
--4----------4----------4-----|
--------(4)--------(4)--------|
------------------------------|
------------------------------|


  E  E   E   E  E   E   E  E
---------2----------2---------|
-----3----------3----------3--|
--4----------4----------4-----|
--------(4)--------(4)--------|
------------------------------|
------------------------------|


  E  E   E   E  E   E   E  E
---------2----------2---------|
-----3----------3----------3--|
--4----------4----------4-----|
--------(4)--------(4)--------|
------------------------------|
------------------------------|


  E  E   E   E  E   E   E  E
---------2----------2---------|
-----2----------2----------2--|
--4----------3----------4-----|
--------(4)--------(4)--------|
------------------------------|
------------------------------|


  E  E   E   E  E   E   Q
---------2----------2--------|
-----2----------2------------|
--3----------3----------3----|
--------(4)--------(4)-------|
-----------------------------|
-----------------------------|


  E  E   E   E  E   E   E  E
---------2----------2---------|
-----5----------5----------5--|
--5----------5----------5-----|
--------(4)--------(4)--------|
------------------------------|
------------------------------|


  E  E   E   E  E   E   E  E
---------2----------2---------|
-----5----------5----------5--|
--5----------5----------5-----|
--------(4)--------(4)--------|
------------------------------|
------------------------------|


  E  E   E   E  E   E   E  E
---------2----------2---------|
-----5----------5----------5--|
--4----------4----------4-----|
--------(4)--------(4)--------|
------------------------------|
------------------------------|


  E  E   E   E  E   E   E  E
---------2----------2---------|
-----4----------4----------4--|
--4----------4----------4-----|
--------(4)--------(4)--------|
------------------------------|
------------------------------|


  E  E   E   E  E   E   E  E
---------2----------2---------|
-----4----------4----------4--|
--3----------3----------3-----|
--------(4)--------(4)--------|
------------------------------|
------------------------------|


  E  E  E  E  E  E  E  E     E  E  E  E  E  E  E  E
--------------------------|--------------------------|
-----4--------4--------4--|-----6--------6--------6--|
--5--------5--------5-----|--7--------7--------7-----|
--------7--------7--------|--------8--------8--------|
--------------------------|--------------------------|
--------------------------|--------------------------|


  E  E  E  E  E  E  Q       E  E  E  E  E  E  E  E
-------------------------|--------6--------6--------|
-----6--------6----------|-----8--------8--------8--|
--7--------7--------7----|--8--------8--------8-----|
--------8--------8-------|--------------------------|
-------------------------|--------------------------|
-------------------------|--------------------------|


  E  E  E  E  E  E  E   E
--------6--------6----------|
-----6--------6--------(x)--|
--7--------7--------7-------|
----------------------------|
----------------------------|
----------------------------|


  E  E  E  E  E  E  E   E      E  E  E  E  E  E  E  E
--------5--------5----------|--------6--------6--------|
-----4--------4--------(0)--|-----6--------6--------6--|
--5--------5--------5-------|--7--------7--------7-----|
----------------------------|--------------------------|
----------------------------|--------------------------|
----------------------------|--------------------------|


  E  E  E  E  E  E  E  E     E  E  E  E  E  E  Q
--------6--------6--------|--------6--------6-------|
-----8--------8--------8--|-----6--------6----------|
--8--------8--------8-----|--7--------7--------7----|
--------------------------|-------------------------|
--------------------------|-------------------------|
--------------------------|-------------------------|


  E  E  E  E  E  E  Q       E  E  E  E  E  E  E  E
--------5--------5-------|--------1--------1--------|
-----4--------4----------|-----3--------3--------3--|
--5--------5--------5----|--3--------3--------3-----|
-------------------------|--------------------------|
-------------------------|--------------------------|
-------------------------|--------------------------|


  E  E  E  E  E  E  E  E     E  E  E  E  E  E  E  E
--------1--------1--------|-----------------0--------|
-----3--------3--------0--|-----------3--------3-----|
--3--------3--------3-----|--------0-----0--------0--|
--------------------------|-----2--------------------|
--------------------------|--0-----------------------|
--------------------------|--------------------------|


  E  E  E  E  E  E  E  E     E  E  E  E  E  E  E  E
--------------------------|--------------------------|
--------------------------|--------------------------|
--------2--------2--------|--------0--------0--------|
-----2--------2--------2--|-----2--------2--------2--|
--0--------0--------0-----|--0--------0--------0-----|
--------------------------|--------------------------|


  E  E  Q    H           E  E   E   E  E   E   E  E
----------------------|---------2----------2---------|
----------------------|-----5----------5----------5--|
--------2----L--------|--5----------5----------5-----|
-----2----------------|--------(4)--------(4)--------|
--0-------------------|------------------------------|
----------------------|------------------------------|


  E  E   E   E  E   E   E  E
---------2----------2---------|
-----5----------5----------5--|
--5----------5----------5-----|
--------(4)--------(4)--------|
------------------------------|
------------------------------|


  E  E   E   E  E   E   E  E
---------2----------2---------|
-----5----------5----------5--|
--4----------4----------4-----|
--------(4)--------(4)--------|
------------------------------|
------------------------------|


  E  E   E   E  E   E   E  E
---------2----------2---------|
-----4----------4----------4--|
--4----------4----------4-----|
--------(4)--------(4)--------|
------------------------------|
------------------------------|


  E  E   E   E  E   E   E  E
---------2----------2---------|
-----3----------3----------3--|
--4----------4----------4-----|
--------(4)--------(4)--------|
------------------------------|
------------------------------|


  E  E   E   E  E   E   E  E
---------2----------2---------|
-----3----------3----------3--|
--4----------4----------4-----|
--------(4)--------(4)--------|
------------------------------|
------------------------------|


  E  E   E   E  E   E   E  E
---------2----------2---------|
-----2----------2----------2--|
--4----------3----------4-----|
--------(4)--------(4)--------|
------------------------------|
------------------------------|


  E  E   E   E  E   E   Q
---------2----------2--------|
-----2----------2------------|
--3----------3----------3----|
--------(4)--------(4)-------|
-----------------------------|
-----------------------------|


  E  E   E   E  E   E   E  E
---------2----------2---------|
-----5----------5----------5--|
--5----------5----------5-----|
--------(4)--------(4)--------|
------------------------------|
------------------------------|


  E  E   E   E  E   E   E  E
---------2----------2---------|
-----5----------5----------5--|
--5----------5----------5-----|
--------(4)--------(4)--------|
------------------------------|
------------------------------|


  E  E   E   E  E   E   E  E
---------2----------2---------|
-----5----------5----------5--|
--4----------4----------4-----|
--------(4)--------(4)--------|
------------------------------|
------------------------------|


  E  E   E   E  E   E   E  E
---------2----------2---------|
-----4----------4----------4--|
--4----------4----------4-----|
--------(4)--------(4)--------|
------------------------------|
------------------------------|


  E  E   E   E  E   E   E  E
---------2----------2---------|
-----4----------4----------0--|
--3----------3----------3-----|
--------(4)--------(4)--------|
------------------------------|
------------------------------|


  E  E  E  E  E  E  Q       E  E  E  E  E  E  E  E
-------------------------|--------------------------|
-----4--------4----------|-----6--------6--------6--|
--5--------5--------5----|--7--------7--------7-----|
--------7--------7-------|--------8--------8--------|
-------------------------|--------------------------|
-------------------------|--------------------------|


  E  E  E  E  E  E  Q       E  E  E  E  E  E  E  E
-------------------------|--------6--------6--------|
-----6--------6----------|-----8--------8--------8--|
--7--------7--------7----|--8--------8--------8-----|
--------8--------8-------|--------------------------|
-------------------------|--------------------------|
-------------------------|--------------------------|


  E  E  E  E  E  E  E  E     E  E  E  E  E  E  E   E
--------6--------6--------|--------5--------5----------|
-----6--------6--------0--|-----4--------4--------(0)--|
--7--------7--------7-----|--5--------5--------5-------|
--------------------------|----------------------------|
--------------------------|----------------------------|
--------------------------|----------------------------|


  E  E  E  E  E  E  Q       E  E  E  E  E  E  E  E
--------6--------6-------|--------6--------6--------|
-----6-----6--------6----|-----8--------8--------8--|
--7-----------7----------|--8--------8--------8-----|
-------------------------|--------------------------|
-------------------------|--------------------------|
-------------------------|--------------------------|


  E  E  E  E  E  E  E  E     E  E  E  E  E  E  E  E
--------6--------6--------|--------5--------5--------|
-----6--------6--------0--|-----4--------4--------0--|
--7--------7--------7-----|--5--------5--------5-----|
--------------------------|--------------------------|
--------------------------|--------------------------|
--------------------------|--------------------------|


  E  E  E  E  E  E  E  E     E  E  E  E  E  E  E  E
--------1--------1--------|--------1--------1--------|
-----3--------3--------3--|-----3--------3--------0--|
--3--------3--------3-----|--3--------3--------3-----|
--------------------------|--------------------------|
--------------------------|--------------------------|
--------------------------|--------------------------|


  E  E  E  E  E  E  E  E     E  E  E  E  E  E  E  E
--------3--------3--------|--------1--------1--------|
-----3--------3--------3--|-----3--------3--------3--|
--0--------0--------0-----|--0--------0--------0-----|
--------------------------|--------------------------|
--------------------------|--------------------------|
--------------------------|--------------------------|


  E  E  E  E  E  E  E  E     E  E  E  E  E  E  E  E
--------1--------1--------|--------3--------3--------|
-----3--------3--------3--|-----3--------3--------0--|
--0--------0--------0-----|--0--------0--------0-----|
--------------------------|--------------------------|
--------------------------|--------------------------|
--------------------------|--------------------------|


                                        |----3----|
  E  E  E  E  E  E  E  E     E  E  Q    Q    Q    Q
--------3--------3--------|--------2--------------0----|
-----3--------3--------3--|-----3-------2----3---------|
--2--------2--------2-----|--2-------------------------|
--------------------------|----------------------------|
--------------------------|----------------------------|
--------------------------|----------------------------|


  E  E  E  E  E  E  E  E     E  E  E  E  E  E  E  E
--------3--------3--------|--------2-----------------|
-----3--------3--------3--|-----3--------7-----------|
--2--------2--------2-----|--2--------------9--7-----|
--------------------------|-----------0-----------9--|
--------------------------|--------------------------|
--------------------------|--------------------------|


  H        H           W
--------------------|-------------------|
--------------------|-------------------|
--------------------|-------------------|
--------------------|-------------------|
--0-----------------|-------------------|
--------------------|-------------------|


  W                   W
-------------------|-------------------||
-------------------|-------------------||
-------------------|-------------------||
-------------------|-------------------||
-------------------|-------------------||
-------------------|-------------------||

eso seria la primera parte del Lover Leap



Duration Legend
---------------
W - whole
H - half
Q - quarter
E - 8th
S - 16th
T - 32nd
X - 64th
. - note dotted
|-n-|  - n-tuplets


Tablature Legend
----------------
L - tied note
x - dead note
g - grace note
(n) - ghost note
> - accentuded note
NH - natural harmonic
AH - artificial harmonic
TH - tapped harmonic
SH - semi harmonic
PH - pitch harmonic
h - hammer on
p - pull off
b - bend
br - bendRelease
pb - preBend
pbr - preBendRelease
brb - bendReleaseBend
\n/ - tremolo bar dip
\n - tremolo bar dive
-/n - tremolo bar Release up
/n\ - tremolo bar inverted dip
/n - tremolo bar return
-\n - tremolo bar Release down
S - shift slide
s - legato slide
/ -  slide into from below or out of upwards
\ -  slide into from above or out of downwards
~ - vibrato
W - wide vibrato
tr - trill
TP - tremolo picking
T - tapping
S - slap
P - pop
< - fade in
^ - brush up
v - brush down
"            
Submit corrections

comments powered by Disqus
↑ Back to top | Genesis Tabs for Supper Ready Lover Leap. Lyrics for acoustic guitar and electric guitar. Tablatures and chords are parodies/interpretations of the original songs. You may use it for private study, scholarship, research or language learning purposes only