>
 >
Stagnation

Stagnation Bass Tabs

Genesis - Stagnation chords, tabs, tablatures, lyrics

Guitar lessons | Add/correct | Request | Top 50 tabs Artists:  A B C D E F G H I J K L M N O P Q R S T U V W X Y Z 0-9

Stagnation Bass Tabs – Genesis

CD, Sheet music, Poster

Do you like Stagnation? Share with your friends now
Bass Tabs
-------------------------------------------------------------------------------
			     Stagnation - Genesis
-------------------------------------------------------------------------------



0:21
G|----------------|----------------|----------------|----------------|----------------|
D|5-------0-------|--------5----5--|2---------------|----------------|----------------|
A|----------------|0---------------|--------0-------|1---1---1---1---|0---0---0---0---|
E|----------------|----------------|----------------|----------------|----------------|

G|----------------|----------------|----------------|----------------|----------------|
D|----------------|--------0-------|5-------0-------|--------5-------|2---------------|
A|----------------|----------------|----------------|0---------------|--------0-------|
E|4---4---4---4---|3---------------|----------------|----------------|----------------|

G|----------------|----------------|----------------|----------------|----------------|
D|----------------|----------------|----------------|0---------------|2---------------|
A|1---1---1---1---|0---0---0---0---|----------------|----------------|----------------|
E|----------------|----------------|4---4---4---4---|----------------|----------------|

G|----------------|----------------|----------------|------------------|----------------|
D|3---------------|0---------2-4-5-|7---------------|9p7----------9p7--|0-----2---4---7-|
A|----------------|----------------|----------------|------------------|----------------|
E|----------------|----------------|----------------|------------------|----------------|

2:03
G|----------------|----------------|----------------|----------------|
D|----------------|----------------|----------------|----------------|
A|----2-----------|----2-----------|----------------|----------------|
E|----------------|----------------|------0---------|------0---------|X4

2:50
G|--------------------------|--------------------|-----------------------|
D|--------12-10-12-17-15-17-|15--1212121212121212|--12---12---12---12-12\|
A|--------------------------|--------------------|-----------------------|
E|--------------------------|--------------------|-----------------------|

G|----------------|--------------------------|--------------------|------------------------|
D|----------------|--------12-10-12-17-15-17-|15--1212121212121212|121212121212121200000000|
A|----------------|--------------------------|--------------------|------------------------|
E|----------------|--------------------------|--------------------|------------------------|

G|-------------------|---------------------|----------------------|---------------------|
D|12---12---12-------|12---12-12-9/--12-12\|----------------------|---------------------|
A|-------------------|---------------------|12--12\-10\---12\-10\-|---12\-10\---12\-10\-|
E|--------------10-10|---------------------|----------------------|---------------------|

G|--------------------|--------------------|----------------------|---------------------|
D|12--12-12---12\-12\-|12--12-12---12\-12\-|----------------------|---------------------|
A|--------------------|--------------------|12--12\-10\---12\-10\-|---12\-10\---12\-10\-|
E|--------------------|--------------------|----------------------|---------------------|

G|--------------------|--------------------|----------------------|---------------------|
D|12--12-12---10/-12\-|12--12-12---10/-12\-|----------------------|---------------------|
A|--------------------|--------------------|12--12\-10\---12\-10\-|---12\-10\---12\-10\-|
E|--------------------|--------------------|----------------------|---------------------|

G|--------------------|--------------------|----------------------|---------------------|
D|12--12-12---10/-12\-|12--12-12---10/-12\-|----------------------|---------------------|
A|--------------------|--------------------|12--12\-10\---12\-10\-|---12\-10\---12\-10\-|
E|--------------------|--------------------|----------------------|---------------------|

4:53
G|----------------|
D|7---------------|
A|----------------|
E|----------------|X3

5:13
G|----------------|
D|7---------------|
A|----------------|
E|----------------|X15

7:44 - end
G|----------------|----------------|----------------|----------------|
D|----------------|2---------------|4---0-------4---|2---------------|
A|0-------4---0---|----------------|--------0-------|----0---4---2---|
E|----0-----------|----------------|----------------|----------------|X5

Of course, slow the last one down and end with:

G|----------------|
D|----------------|
A|0---------------|
E|----------------|





Comments


Popular Genesis tabs & chords
One Eyed Hound Chords
The Carpet Crawlers Chords
Afterglow Tabs
In Hiding Tabs
It Intro Tabs
Jesus He Knows Me 1 Tabs
Down And Out Ukulele
Illegal Alian Ukulele
Match Of The Day Ukulele
Tell Me Why Ukulele


Song lyrics



↑ Back to top | Tablatures and chords are parodies/interpretations of the original songs. You may use it for private study, scholarship, research or language learning purposes only
© 2014 AZChords.com Contact us | Privacy policy | DMCA | Add/correct tabs | Request tabs | Top 50 tabs