>
 >
Me And Sarah Jane

Me And Sarah Jane Bass Tabs

Genesis - Me And Sarah Jane chords, tabs, tablatures, lyrics

Guitar lessons | Add/correct | Request | Top 50 tabs Artists:  A B C D E F G H I J K L M N O P Q R S T U V W X Y Z 0-9

Me And Sarah Jane Bass Tabs – Genesis

CD, Sheet music, Poster

Do you like Me And Sarah Jane? Share with your friends now
Bass Tabs
-----------------------------------------------------------------------------
                         ME AND SARAH JANE - Genesis
-----------------------------------------------------------------------------


Tuning: E A D G

INTRO
|--------|
|--------|
|--------|
|--------|

VERSE 1 - 0:54
|----4--|---4---|---4---|---4---|---5---|---6---|-------|-------|
|-------|-------|-------|-------|-------|-------|---6---|---6---|
|2-22---|-22-2--|-22-2--|--2-2--|-33-3--|-44-4--|-------|-------|
|-------|-------|-------|-------|-------|-------|-44-4--|-44-4--|

SOLO 1 - 1:13
|--------|------|--------|------|-------10----|---10---|-------10----|---810--|
|----6---|-46---|----6---|-466--|----10----10-|810-----|----10----10-|810-----|
|--6---6-|6-----|--6---6-|6-----|-6/8--8--8--8|-----8--|-6/8--8--8--8|--------|
|-4-4-4-4|---4--|-4-4-4-4|------|-------------|--------|-------------|--------|

INTERLUDE 1 - 1:30
|----6---|-------|--43--4/6-|-------|-----4-3|--4/6----|-----4-3|--4/6----|------|
|--6---6-|-----4-|-----4----|-------|-4-6----|-4-------|-4-6----|-4-------|------|
|-4-4-4--|-467---|-4--------|-44-467|--------|------467|--------|-------44|--444-|
|--------|-------|----------|-------|--------|---------|--------|---------|------|

PRECHORUS 1 - 1:50
|-----7-|---------|-------|---------|-------|---------|-------|---------|
|-------|-----3/5-|----00-|-----3/5-|----0--|-----3/5-|----00-|-----3/5-|
|-55----|-..------|--03---|-..------|--03---|-..------|--03---|-..------|
|-------|-133-----|-------|-133-----|-------|-133-----|-------|-133-----|
                                                       
CHORUS 1 - 2:08
|--33--3-|--55----|--10-7---2|--33--3-|--55----|--------|
|--------|------33|-------35-|--------|------33|--3---3-|
|--------|--------|----------|--------|--------|--------|
|--------|--------|----------|--------|--------|--------|

PRECHORUS 2 - 2:21
|--------|----------|--------|----------|--------|----------|--------|--------|
|----0---|------3/5-|----00--|------3/5-|----00--|------3/5-|----00--|------5-|
|--03----|-..-------|--03----|-..-------|--03----|-..-------|--03----|-..-----|
|--------|-133------|--------|-133------|--------|-133------|--------|-133----|

CHORUS 2 - 2:39
|--33--3-|--55----|-------2|--33--3-|--55----|2-------|--------|--------|
|--------|------33|--3--35-|--------|------33|--3-0-2-|3-------|--------|
|--------|--------|--------|--------|--------|--------|--------|0-------|
|--------|--------|--------|--------|--------|--------|--------|--------|

BRIDGE - 2:56
|--------|--------|--------|--------|--------|--------|--------|--------|
|-----5-6|-----5-6|-----5-6|-----5-6|--------|--------|----5-5-|6-33----|
|--------|--------|--------|--------|--------|--5-6-7-|8-9-----|--------|
|--3-3-4-|55--3-4-|55--3-4-|55--3-4-|556-7-8-|9-------|--------|--------|

|--------|5-------|-------6\|3-------|-----5-|-----5-5\|--------|--------|
|--33----|--------|---------|--------|--3/5--|--3/5----|5-5-5-5-|5-5-5-5-|
|--------|--33--3-|--44--4--|--11--1-|3------|3--------|--------|--------|
|--------|--------|---------|--------|-------|---------|--------|--------|

INTERLUDE 2 - 3:31                                         ss
|-------|9-----|----9-|/119---|------|-------|11-----|-----8--8--6-|
|-------|------|-----9|-------|5---75|0----11|----4--|---66-6--66-6|
|----2/7|------|------|-------|------|----9--|-------|-------------|
|0------|------|0-----|-------|------|-------|-------|4------------|

OUTRO - 4:06
|--6------|--6-----8/108|--6\---6-|--.6-----|--6---6-|--6-----8/108|
|------.--|----6/86-----|---------|--6------|--------|----6/86-----|
|44--444.2|44-----------|44---44--|4------2-|44--44--|44-----------|
|-------4-|-------------|---------|-----4---|--------|-------------|
                                                     
|--6-6\-6-|--6-6/81011\|--6-------|-------6|--6-----|--6---686-|
|---------|------------|---------4|43311-6-|--------|---6/8---8|
|44----4--|44----------|44------4-|-----4--|44---24-|-4--------|
|---------|------------|-----4/6--|--------|----4---|----------|

|--6-------|-------6|--6-----|-----686\|--------|--6---66|
|---------4|43311-6-|--------|--6/8----|--------|--------|
|44------4-|-----4--|44---24-|---------|4\44---2|44--44--|
|-----4/6--|--------|----4---|---------|------4-|--------|

|6\--66--|--66--66|--6---66|6-------|--6-------|-------6|
|--------|--------|--------|--------|---------4|43311-6-|
|--4----2|44--44--|44--44--|-4------|44------4-|-----4--|
|------4-|--------|--------|--0-2-4-|-----4/6--|--------|

|--6-----|11-----686\|--6-------|-------6|---6-----|---6-6-6|
|--------|----6/8----|---------4|43311-6-|---------|4-------|
|44---24-|-----------|44------4-|-----4--|4-4-4-24-|--4-4-4-|
|----4---|-----------|-----4/6--|--------|-----4---|--------|

|--6\--66|--66/666-|6\--66--|--6-/6666|6\.---6---|-64-----|
|--------|--------6|--------|---------|--6.-.----|---64---|
|4/--44--|44-------|--44--44|4/-------|---4-4--44|-------2|
|--------|---------|--------|---------|----------|------4-|

|------|------|------|------|------|------|------|------|
|------|------|------|------|1-----|------|3-----|------|
|4-----|------|4-----|------|------|------|------|2-----|
|------|------|------|------|------|------|------|------|

|------|------|------|------|------|------|------|
|1-----|------|------|------|------|------|------|
|------|------|4-----|------|------|------|------|
|------|------|------|------|------|------|------|





Comments


Popular Genesis tabs & chords
Firth Of Fifth Chords
Illegal Alian Chords
Land Of Confusion 2 Chords
More Fool Me 2 Chords
Time Table Chords
Cinema Show 2 Tabs
More Fool Me Tabs
Ripples Ukulele
The Carpet Crawlers Ukulele
Time Table Ukulele


Song lyrics



↑ Back to top | Tablatures and chords are parodies/interpretations of the original songs. You may use it for private study, scholarship, research or language learning purposes only
© 2014 AZChords.com Contact us | Privacy policy | DMCA | Add/correct tabs | Request tabs | Top 50 tabs