>
 >
Land Of Confusion

Land Of Confusion Bass Tabs

Genesis - Land Of Confusion chords, tabs, tablatures, lyrics

Guitar lessons | Add/correct | Request | Top 50 tabs Artists:  A B C D E F G H I J K L M N O P Q R S T U V W X Y Z 0-9

Land Of Confusion Bass Tabs – Genesis

CD, Sheet music, Poster

Do you like Land Of Confusion? Share with your friends now
Bass TabsChordsChords v2Chords v3Chords v4Ukulele
----------------------------------------------------------------------------
			     Land fo Confusion - Genesis
----------------------------------------------------------------------------


Tuning: Standard

Intro:
G|-----------------------------------|
D|----6--------6--------6--------6---|x2
A|--6---6----6---6----6---6----6---6-|
E|44-4-4-4-44-4-4-4-44-4-4-4-44-4-4-4|

During the verse the bass is playing the drum beat

Verse:
G|--------------------------------------|
D|--------------------------------------|x2
A|66-66-6-6-66--------------------------|
E|-------------44-44-4-4-44-77-77-7-7-77|

Chorus:
G|---------------------------------------|
D|-----------46------------------4h6-----|x2
A|-66-66-6-6---64---66-66-6-6-------6p4h6|
E|---------------76-----------4-6--------|
|
G|------------------------|
D|---4--4-4-------3--3----|x2
A|4---4--4-----4---4--4---|
E|------------------------|

Break:
G|--5------------5----5-------------5----5------------------------------|
D|-----------5-8--------------5-8-5----------------------------------3--|x2
A|3-------3--------3-------3-----------3-------3--3------3--6--5--3-----|
E|----3-6--------------3-6-----------------3-6-------3-6----------------|
|
G|---------------------------------------------|
D|---------------------------------------------|
A|------2---------2-----2--4--2--4--46---------|
E|4--------------------------------------------|





Comments


Popular Genesis tabs & chords
Invisible Touch Bass Tabs
Lamb Lies Down On Broadway Bass Tabs
Please Dont Ask 2 Chords
Your Own Special Way 1 Chords
Afterglow Tabs
Dancin With The Moonlight Tabs
Firth Of Fifth Intro Tabs
Horizons Tabs
Match Of The Day Ukulele
The Lamia Ukulele


Song lyrics



↑ Back to top | Tablatures and chords are parodies/interpretations of the original songs. You may use it for private study, scholarship, research or language learning purposes only
© 2014 AZChords.com Contact us | Privacy policy | DMCA | Add/correct tabs | Request tabs | Top 50 tabs