» » »

Genesis, Firth Of Fifth Tabs (ver.3)

Artists:  A B C D E F G H I J K L M N O P Q R S T U V W X Y Z # 

Firth Of Fifth Tabs (ver.3)

Genesis Tabs
 Rating:
4.2/5 (5 votes)
Firth Of Fifth lessons Tabs too difficult? Try these video lessons and learn fast
1
                (Intro)
Firth of Fifth Intro.
Music by Tony Banks from Genesis.
Arrangement by hyperboreal on march 2007.


E -5---------5----------2--------------2------0-------------2-----------------|
B -------5---5------5--------3--5---2------3-------2---4------4---------------|
G -----6-----7----6--------2------2------2-------2-------4--4-----------------|
D ---7-------7--7-------0-----------------------------------4-----------------|
A -0---------0------------------4------3------2--------2----2-----------------|
E ----------------------------------------------------------------------------|

E -7----0----9------5--8--------7-------5---------5----7----------------------|
B ----0---9-------5---------------------------------6--0-8--------------------|
G --------------6------------9-------9-------7------------------REPEAT--------|
D -6----------------------10-------9-------7------7----0----------------------|
A --------7--5--------------------------5---------5---------------------------|
E -0-------------------8--------7---------------------------------------------|

E -5--------------------------------------------------------------------------|
B -------5--7-8-7-5--7------------7----------10----7-----------7--------10----|
G -----6-----------------7--9---7-----7--9-------------7-9---7----7-9---------|
D ---7-----------------7------7-----7------7----7----7-----7-----7----7----7--|
A -0-----------------------------------------------0-----0-----0----0----0----|
E -------------------7------7-----7------7----7-------------------------------|

E --------------------0-------------------------------------------------------|
B 7------------7------------10-------7---------------7----------10------------|
G ----7--9---7-----7---------------------7--9----7-------7--9-----------------|
D --7------7-----7-------7-----7-------7-------7-------7------7-----7---------|
A --------------------10----9--------0------0--------0------0----0------------|
E 7------7-----7--------------------------------------------------------------|


E -3-----2------0------2-----3---5-----6-----5-----3------5-----6----8--------|
B -----3-----3------3----------------------4-----4-----4----------------------|
G ---3-----3------3------3-----3---3-----5-----5-----5------5-----5----5------|
D -0-------------------0-----2---4------------------------3-----5----7--------|
A --------------3----------------------------------3--------------------------|
E -------------------------------------3--------------------------------------|


E -9-----8------6------8------9--11----13------11-----9-------11----13----15---|
B -----6-----6------6------6---6---6--------11-----11-----11----11----11---11--|
G ---6-----6------6------6------6---6-----11-----11-----11--------12----12--12-|
D -----------------------------------------------------------------------------|
A --------------8----------------------9---------------------------------------|
E -6----------------------------------------------------------11---------------|

E -5---------3-5-3-1--3-----0------3------0----3-----5-----1---3-5-3-1--------|
B -------6----------------3-----1------3-----------------1--------------------|
G -----5-----3---2------3-----0------3------0-----0----2-------3---2----------|
D ---7-------3---3---------------------------------------------3---3----------|
A -8--------------------------------------------------------------------------|
E --------------------1-----1------1------1----1-----1------------------------|

E 3-----0-------3------0---3---------------3-------0------1-----0-----0---0---|
B ----3------1------3---------------------------3------2------3-----3---3---3-|
G --3------0------3------0---0----REPEAT------3------2------2-----2-----------|
D -----------------------------------------3-------2------0-------------------|
A --------------------------------------------------------------4-------------|
E 1------1------1------1---1--------------------------------------------------|

E -5---------5----------2--------------2------0-------------2-----------------|
B -------5---5------5--------3--5---2------3-------2---4------4---------------|
G -----6-----7----6--------2------2------2-------2-------4--4-----------------|
D ---7-------7--7-------0-----------------------------------4-----------------|
A -0---------0------------------4------3------2--------2----2-----------------|
E ----------------------------------------------------------------------------|

E -7----0----9------5--8--------7-------5---------5----7----------------------|
B ----0---9-------5---------------------------------6--0-8--------------------|
G --------------6------------9-------9-------7--------------------------------|
D -6----------------------10-------9-------7------7----0----------------------|
A --------7--5--------------------------5---------5---------------------------|
E -0-------------------8--------7---------------------------------------------|

E -5---------5----------2--------------2------3------5----4----------0--------|
B -------5---5------5--------3--5---2------3------5----7----6--8--------------|
G -----6-----7----6--------2------2------2------3----------------0------------|
D ---7-------7--7-------0------------------------------------------7----------|
A -0---------0------------------4------3-----------------------0--------------|
E --------------------------------------------6------5----4-------------------|

E --------5------------------8-10-11-----------8--10-11-----------------------|
B -7-8--7----11-----8--10-11-----------8-10-11--------------------------------|
G -7----6---------8----8-----8-------8------8-----8---------------------------|
D -7----7-------8------8-----8--------------8-----8-------8-------------------|
A --------------------------------------------------------8-------------------|
E -----------8--------------------8-----------------------6-------------------|
            
Submit corrections

comments powered by Disqus
↑ Back to top | Genesis Tabs for Firth Of Fifth. Lyrics for acoustic guitar and electric guitar. 1 Tablatures and chords are parodies/interpretations of the original songs. You may use it for private study, scholarship, research or language learning purposes only