» » »

Genesis, Congo Bass tabs (ver.1)

Artists:  A B C D E F G H I J K L M N O P Q R S T U V W X Y Z # 

Congo Bass tabs (ver.1)

Genesis Tabs
Rating:
0/5 (0 votes)
Congo lessons Tabs too difficult? Try these video lessons and learn fast
                Genesis - Congo
Bass Tab

BASSTABBED BY: Ronny Schouten
1/8 note is half a count. (“1-ahh 2-ahh 3-ahh 4-ahh...”)

INTRO
( 1/8 notes:                                                              )
 | * * * * * * * * | * * * * * * * * | * * * * * * * * | * * * * * * * * |
G----------------------------------------------------------------------------|
D----------------------------------------------------------------------------|
A----------------------------------------------------------------------------|
E----0-0---0-----0-----0---0---0---0-----0-0---0-----0-----0---0---0---0-----|

 | * * * * * * * * | * * * * * * * * |
G------------------------------------|
D------------------------------------|
A------------------------------0-----|
E----0-0---0-----0-----0---0-----3-0-|

VERSE
 | * * * * * * * * | * * * * * * * * | * * * * * * * * | * * * * * * * * |
G----------------------------------------------2-----------------------------|
D------------------------------------------0-------2-------------------------|
A----------------------------------------------------------------------------|
E----0-2---0-----0-----0---0-0-----0-----------------------------------------|
 “you say............chains on you...”

CHORUS/ENDING
 | * * * * * * * * | * * * * * * * * | * * * * * * * * | * * * * * * * * |
G----------------------------------------------------------------------------|
D----------------------------------------------------------------------------|
A------------------------------0/1\0-------------------------------0/1\------|
E----0---0---0---0-----0---0-------------0---0---0---0-----0---0-------------|

MIDDLE
 | * * * * * * * * | * * * * * * * * | * * * * * * * * | * * * * * * * * |
G----------------------------------------------------------------------------|
D----------------------------------------------------------------------------|
A--0-----------------3-----------------5-----5-5---------5-------------------|
E----------------------------------------------------------------------3-----|

 | * * * * * * * * | * * * * * * * * | * * * * * * * * | * * * * * * * * |
G----------------------------------------------------------------------------|
D----------------------------------------------------------------------------|
A--0-----0-0---------3-------------3---5-----5-5---------5-------------------|
E----------------------------------------------------------------------------|

 | * * * * * * * * | * * * * * * * * | * * * * * * * * | * * * * * * * * |
G----------------------------------------------------------------------------|
D----------------------------------------------------------------------------|
A--0-----0-0-----0---3-----3-3-----------------------------------------------|
E--------------------------------------3-----3-3---------3-------------------|
            
Submit corrections

comments powered by Disqus
↑ Back to top | Genesis Bass for Congo. Lyrics for acoustic guitar and electric guitar. Tablatures and chords are parodies/interpretations of the original songs. You may use it for private study, scholarship, research or language learning purposes only