>
 >
Cinema Show Intro

Cinema Show Intro Guitar Tabs

Genesis - Cinema Show Intro chords, tabs, tablatures, lyrics

Guitar lessons | Add/correct | Request | Top 50 tabs Artists:  A B C D E F G H I J K L M N O P Q R S T U V W X Y Z 0-9

Cinema Show Intro Guitar Tabs – Genesis

CD, Sheet music, Poster

Do you like Cinema Show Intro? Share with your friends now
Tabs

Tuning: DADGBE

e|-------17-----17------17------17-------------15------15------15------|
B|-----------20-----20------20-------------18------18------18------18--|
G|-----------15-----15------15-----------------15------15------15------|
D|---------------------------------------------------------------------|
A|---0---------------------------------0-------------------------------|
D|---0---------------------------------0-------------------------------|

e|-------13-------13------13------13-------------12------12------12-------|
B|-----------17-------17------17-------------15------15------15-------15--|
G|-----------15-------15------15-----------------15------15------15-------|
D|------------------------------------------------------------------------|
A|---0----------------------------------0---------------------------------|
D|---0----------------------------------0---------------------------------|

e|-------12------12------12-----12-------------10------10------10--|
B|------------15-----15------15------------13------13-------13-----|
G|-------10------10------10-----10-------------10------10------10--|
D|-----------------------------------------------------------------|
A|---0--------------------------------0----------------------------|
D|---0--------------------------------0----------------------------|

e|-----------8------8-------8------8---------------7-------7-------7-------|
B|--------------12------12-----12-------------10------10------10-------10--|
G|--------------10------10-----10------------------7-------7-------7-------|
D|-------------------------------------------------------------------------|
A|----0---------------------------------0----------------------------------|
D|----0---------------------------------0----------------------------------|

e|-----------7------7-----7----------------5------5-----5------------------------------|
B|--------8------8-----8------8--------8------8------8-----8---------------------------|
G|-----------5------5-----5----------------5------5-----5------------------------------|
D|-------------------------------------------------------------------------------------|
A|----0---------------------------0----------------------------------------------------|
D|----0---------------------------0----------------------------------------------------|

e|---------------5------5-------5-----------------3-----3------3-----------------------|
B|-----------6-------6-------6-----6-----------6-----6------6------6-------------------|
G|---------------5------5-------5-----------------3-----3------3-----------------------|
D|-------------------------------------------------------------------------------------|
A|------0----------------------------------0-------------------------------------------|
D|------0----------------------------------0-------------------------------------------|

e|----------3------3-----3------------------3------3------3----------------------------|
B|-------5------5-----5-----5------------6------6------6------6------------------------|
G|----------3------3-----3------------------3------3------3----------------------------|
D|-------------------------------------------------------------------------------------|
A|---0-----------------------------0---------------------------------------------------|
D|---0-----------------------------0---------------------------------------------------|

e|--------3---3---3------------10--------10------10--10--10--------10-----10--|
B|------5---5---5----5------14--------14-------14--14--14-------14-------14---|
G|--------3---3---3-------11-------11-------11----------------12-------12-----|
D|-------------------------------0-----------------------------------0--------|
A|---0------------------0-----------------0-----------------0-----------------|
D|---0------------------0-----------------0-----------------0-----------------|


| /  slide up
| \  slide down
| h  hammer-on
| p  pull-off
| ~  vibrato
| +  harmonic
| x  Mute note





Comments


Popular Genesis tabs & chords
Land Of Confusion 2 Chords
Ripples 2 Chords
Suppers Ready 1 Chords
Afterglow Tabs
Firth Of Fifth Tabs
Musical Box Tabs
Squonk Tabs
Supper's Ready 1 Tabs
Turn It On Again 1 Tabs
Dancing With The Moonlit Knight Ukulele


Song lyrics



↑ Back to top | Tablatures and chords are parodies/interpretations of the original songs. You may use it for private study, scholarship, research or language learning purposes only
© 2014 AZChords.com Contact us | Privacy policy | DMCA | Add/correct tabs | Request tabs | Top 50 tabs