>
 >
After The Ordeal 1

After The Ordeal 1 Guitar Tabs

Genesis - After The Ordeal 1 chords, tabs, tablatures, lyrics

Guitar lessons | Add/correct | Request | Top 50 tabs Artists:  A B C D E F G H I J K L M N O P Q R S T U V W X Y Z 0-9

After The Ordeal 1 Guitar Tabs – Genesis

CD, Sheet music, Poster

Do you like After The Ordeal 1? Share with your friends now
TabsTabs v2Tabs v3
-------
Intro:
-------

    Dm      C       Bb      C
e||-10------8-------1-------8---------|------------------------------------|
B||-10------8-------3-------8---------|------------------------------------|
G|4-10------9-------3-------9---------|------------------------------------|
D|4-----------------3-----------------|------------------------------------|
A||-----------------------------------|------------------------------------|
E||-----------------------------------|------------------------------------|

-------
Part A:
-------

    Am      G       Fmaj7   Cadd7       Am      G       C
e||----------------------h------------|------------------h---0-------------|
B||-1-----1-0---------0-1-3-3--1--0---|-1-----1-0-------1-3--1-------------|
G|4o----2-----2--0--2---2-------------|-----2-----2--0---------------------|
D|4o--2-------------3-----------------|---2--------------------------------|
A||-0-----------------------3---------|-0---------------3------------------|
E||---------3-------------------------|---------3--------------------------|

    F       Bb      C       Bb
e||-5--5-3--1--0-1--0-----------------|
B||-6-------3-------1---1-------3-----|
G|4-5-------3-----------0---3---3----o|
D|4-------------------------3--------o|
A||-----------------------------------|
E||-----------------------------------|

-------
Part B:
-------

    C  Bb Bbmaj7 C  C   Bb              C   Bb
e||-3-------5---3---------------------|-3-------3-------3------------------|
B||-5---3---3---5---5---3-------------|-5---3-----6-5----------------------|
G|4-5---3---3---5---5---3-------------|-5---3------------------------------|
D|4-5---3-------5---5---3-------------|-5---3------------------------------|
A||-----------------------------------|------------------------------------|
E||-----------------------------------|------------------------------------|

  Bbmaj7 BbaddG C   Bb          C       Bb              A       B
e||-5-3-5---3---3---------------3-----|-----3-------3----h-h--------2------|
B||-3-3-3---3---5---3-----------5-----|-3-----6-5-------2-3-5---4---4------|
G|4-3-3-3---3---5---3-----------5-----|-3---------------2-2-----4---4------|
D|4-3---3-----------3-----------5-----|-3---------------2---------4--------|
A||-----------------------------------|------------------------------------|
E||-----------------------------------|------------------------------------|

    G#      C#m     B
e||-------------0---2-0---------------|
B||--h-p4---2---2---4---4-------------|
G|4-5-6-5---1---1---4---4-------------|
D|4-6-------2-------4---4-------------|
A||-----------------------------------|
E||-----------------------------------|

-------
Part C:
-------

e||-0---------------------------------|-0----------------------------------|
B||---2-------------------------------|---2------------------------0-------|
G|4-----2-1-----------1-2-2-1---4-----|-----2-1-----------1-2-1-------1----|
D|4---------4-2-1-2-4-----------------|---------4-2-1-2-4------------------|
A||-0---------------------------------|-0-----------------------2----------|
E||-----------------------------------|------------------------------------|

    A                                   C#      G       B       E
e||------------------h-h---------p----|-1---4---------------2-------0------|
B||-2---------------4-5-7-------5-4---|-2-------0-1-3---4------------------|
G|4o---------------------------------o|-1-------0-------4-------1----------|
D|4o---------------------------------o|-----------------4------------------|
A||-0---------------------------------|------------------------------------|
E||-----------------------------------|---------3---------------0----------|

e||-1-------0-------------------------|-1-----------0----------------------|
B||---3-----0-------------------------|---3-------0------------------------|
G|4o----2---1-(Strum chord loosely)--o|-----2---1--------------------------|
D|4o0--------------------------------o|-0----------------------------------|
A||-----------------------------------|------------------------------------|
E||---------0-------------------------|------------------------------------|

Repeat Part A, Part B and Part C

e||-----------------------------------|
B||-1-------0---------------0---------|
G|4o2-------0-------2-------0--------o|
D|4o2-------0-------3-------0--------o|
A||-0---------------3-----------------|
E||---------3---------------3---------|

-------
Solo:
-------

e||-----------------------------------|------------------------------------|
B||-12------12--12--12--10------10----|-10------8---7---8------------------|
G|4-----------------------------------|------------------------------------|
D|4-----------------------------------|------------------------------------|
A||-----------------------------------|------------------------------------|
E||-----------------------------------|------------------------------------|

e||-12------12--12--12--10------10----|-10------8---7---8------------------|
B||-----------------------------------|------------------------------------|
G|4-----------------------------------|------------------------------------|
D|4-----------------------------------|------------------------------------|
A||-----------------------------------|------------------------------------|
E||-----------------------------------|------------------------------------|

e||-15------14--12--------------------|-13------12-------------------------|
B||-----------------15----------------|-------------15--13-----------------|
G|4-----------------------------------|------------------------------------|
D|4-----------------------------------|------------------------------------|
A||-----------------------------------|------------------------------------|
E||-----------------------------------|------------------------------------|

e||-----------------------------------|-----------b--r---------------------|
B||-13------11--10--11----------------|-10------12-13----------------------|
G|4-----------------------------------|------------------------------------|
D|4-----------------------------------|------------------------------------|
A||-----------------------------------|------------------------------------|
E||-----------------------------------|------------------------------------|

e||-----------------------------------|-----------------------------7------|
B||-12------12--12--12--10------10----|-10------8---7---8------8-10--------|
G|4-----------------------------------|------------------------------------|
D|4-----------------------------------|------------------------------------|
A||-----------------------------------|------------------------------------|
E||-----------------------------------|------------------------------------|

e||-12------12--12--12--10------10----|-10------8---7---8-----8-10-12------|
B||-----------------------------------|------------------------------------|
G|4-----------------------------------|------------------------------------|
D|4-----------------------------------|------------------------------------|
A||-----------------------------------|------------------------------------|
E||-----------------------------------|------------------------------------|

e||-15------14--12--------------------|-13------12-------------------------|
B||-----------------15----------------|-------------15--13-----------------|
G|4-----------------------------------|------------------------------------|
D|4-----------------------------------|------------------------------------|
A||-----------------------------------|------------------------------------|
E||-----------------------------------|------------------------------------|

e||-----------------------------------|-----------b--r---------------------|
B||-13------11--10--11----------------|-10------12-13---12-----------------|
G|4-----------------------------------|------------------------------------|
D|4-----------------------------------|------------------------------------|
A||-----------------------------------|------------------------------------|
E||-----------------------------------|------------------------------------|
      r
e||-17-15-14-15------r----------------|------------------------------------|
B||----------------12-10-8--10--------|-----8-7-----------------7---8------|
G|4-----------------------------------|-9-------7-------7--9/11------------|
D|4-----------------------------------|------------------------------------|
A||-----------------------------------|------------------------------------|
E||-----------------------------------|------------------------------------|

e||----b----r-------------------------|------------------------------------|
B||-10---12-----------------8---------|------------------------------------|
G|4-----------------------------------|-Repeat these last notes over the---|
D|4-----------------------------------|-Keyboard and flute solos-----------|
A||-----------------------------------|------------------------------------|
E||-----------------------------------|------------------------------------|





Comments


Popular Genesis tabs & chords
Jesus He Knows Me 1 Chords
No Son Of Mine 1 Chords
Snowbound Chords
Throwing It All Away Chords
Window Chords
Firth Of Fifth 1 Tabs
Inside And Out Tabs
Mama Tabs
The Chamber Of 32 Doors Ukulele
Time Table Ukulele


Song lyrics



↑ Back to top | Tablatures and chords are parodies/interpretations of the original songs. You may use it for private study, scholarship, research or language learning purposes only
© 2014 AZChords.com Contact us | Privacy policy | DMCA | Add/correct tabs | Request tabs | Top 50 tabs