» » »

Generation Unleashed, Shout It Out Bass tabs (ver.1)

Artists:  A B C D E F G H I J K L M N O P Q R S T U V W X Y Z # 

Shout It Out Bass tabs (ver.1)

Generation Unleashed Tabs
 Rating:
4/5 (4 votes)
Shout It Out lessons Tabs too difficult? Try these video lessons and learn fast
                -------------------------------------------------------------------------------
-------------------------------------------------------------------------------


Tuning: Standard

Intro:(just drums for a bit)X4
G|--------------------------------|
D|--------0-0-0---2-2-2-----------|
A|------4-------4-------4-2-2-2-4-|
E|2-2-2---------------------------|

Verse I:
G|--------------------------------|
D|--------0-0-0---2-2-2-----------|
A|------4-------4-------4-2-2-2-4-|
E|2-2-2---------------------------|

G|----------------2-2-2---2-2------------------------------------------------|
D|--------0-0-0---------2-----2-2/4-4-4--------------------------------------|
A|------4-------4-----------------------4-5-5-5-4-0-0-0-4-2-2-2-4------------|
E|2-2-2----------------------------------------------------------------------|

G|--------------------------------|
D|--------0-0-0---2-2-2-----------|
A|------4-------4-------4-2-2-2-4-|
E|2-2-2---------------------------|

G|--------------------------------|
D|--------0-0-0---2-2-2-----------|
A|------4-------4-------4-2-2-2-4-|
E|2-2-2---------------------------|

G|--------------------------------|
D|--------0-0-0---2-2-2-----------|
A|------4-------4-------4-2-2-2-4-|
E|2-2-2---------------------------|

Chorus:X2
G|---------------------------------------------------------------------------|
D|---------------------------------------------------------------------------|
A|----------------5-5-5-5-5-5-5-5-0-0-0-0-0-0-0-0----------------------------|
E|2-2-2-2-2-2-2-2---------------------------------7-7-7-7-7-7-0-0------------|

Intro:(after drum beat)X2
G|----------------------------------|
D|----------0-0-0---2-2-2-----------|
A|--------4-------4-------4-2-2-2-4-|
E|0-2-2-2---------------------------|

Verse II:
G|--------------------------------|
D|--------0-0-0---2-2-2-----------|
A|------4-------4-------4-2-2-2-4-|
E|2-2-2---------------------------|

G|----------------2-2-2---2-2------------------------------------------------|
D|--------0-0-0---------2-----2-2/4-4-4--------------------------------------|
A|------4-------4-----------------------4-5-5-5-4-0-0-0-4-2-2-2-4------------|
E|2-2-2----------------------------------------------------------------------|

G|--------------------------------|
D|--------0-0-0---2-2-2-----------|
A|------4-------4-------4-2-2-2-4-|
E|2-2-2---------------------------|

G|--------------------------------|
D|--------0-0-0---2-2-2-----------|
A|------4-------4-------4-2-2-2-4-|
E|2-2-2---------------------------|

G|--------------------------------|
D|--------0-0-0---2-2-2-----------|
A|------4-------4-------4-2-2-2-4-|
E|2-2-2---------------------------|

Chorus:X4
G|---------------------------------------------------------------------------|
D|---------------------------------------------------------------------------|
A|----------------5-5-5-5-5-5-5-5-0-0-0-0-0-0-0-0----------------------------|
E|2-2-2-2-2-2-2-2---------------------------------7-7-7-7-7-7-7-7------------|

Bridge:
G|---------------------------------------------------------------------------|
D|---------------------------------------------------------------------------|
A|5-5-5-5-5-5-5-5-----------------7-7-7-7-7-7-7-7-9-9-9-9-9-9-9-9------------|
E|----------------5-5-5-5-5-5-5-5--------------------------------------------|

G|---------------------------------------------------------------------------|
D|---------------------------------------------------------------------------|
A|5-5-5-5-5-5-5-5-----------------7-7-7-7-7-7-7-7-9-9-9-9-9-9-9-9------------|
E|----------------5-5-5-5-5-5-5-5--------------------------------------------|

G|---------------------------------------------------------------------------|
D|---------------------------------------------------------------------------|
A|5-5-5-5-5-5-5-5-----------------7-7-7-7-7-7-7-7-9-9-9-9-9-9-9-9------------|
E|----------------5-5-5-5-5-5-5-5--------------------------------------------|

G|---------------------------------------------------------------------------|
D|---------------------------------------------------------------------------|
A|5-5-5-5-5-5-5-5-----------------4-4-4-4-4-4-4-4-4-4-4-4-4-4-4-4------------|
E|----------------5-5-5-5-5-5-5-5---------------------------------2----------|

Pre-Solo:(played with drum beat)
G|---------------------------------------------------------------------------|
D|---------------------------------------------------------------------------|
A|---------------------------------------------------------------------------|
E|2-2-2-2-2--2-2-2-2-2--2-2-2-2-2--2-2-2-2-2---------------------------------|

Guitar solo:
G|---------------------------------------------------------------------------|
D|---------------------------------------------------------------------------|
A|----------------5-5-5-5-5-5-5-5-0-0-0-0-0-0-0-0----------------------------|
E|2-2-2-2-2-2-2-2---------------------------------7-7-7-7-7-7-7-7------------|

G|---------------------------------------------------------------------------|
D|---------------------------------------------------------------------------|
A|----------------5-5-5-5-5-5-5-5-0-0-0-0-0-0-0-0----------------------------|
E|2-2-2-2-2-2-2-2---------------------------------7-7-7-7-7-7-7-7------------|

G|---------------------------------------------------------------------------|
D|---------------------------------------------------------------------------|
A|----------------5-5-5-5-5-5-5-5-0-0-0-0-0-0-0-0----------------------------|
E|2-2-2-2-2-2-2-2---------------------------------7-7-7-7-7-7-7-7------------|

G|---------------------------------------------------------------------------|
D|---------------------------------------------------------------------------|
A|----------------5-5-5-5-5-5-5-5-0-0-0-0-0-0-0-0----------------------------|
E|2-2-2-2-2-2-2-2---------------------------------4-4-4-4-4-4-4-4------------|

Chorus:X4
G|---------------------------------------------------------------------------|
D|---------------------------------------------------------------------------|
A|----------------5-5-5-5-5-5-5-5-0-0-0-0-0-0-0-0----------------------------|
E|2-2-2-2-2-2-2-2---------------------------------7-7-7-7-7-7-7-7------------|

Extro:
G|---------------------------------------------------------------------------|
D|----------4-4-4-4-4-----------4-4-4-4-4-----------4-4-4-4-4----------------|
A|---------------------------------------------------------------------------|
E|2-2-2-2-2-----------2-2-2-2-2-----------2-2-2-2-2--------------------------|

Ending:
G|---------------------------------------------------------------------------|
D|----------2-2-0-0----------------------------------------------------------|
A|------------------4-4-2-2--------------------------------------------------|
E|2-2-2-2-2-----------------2------------------------------------------------|

| /  slide up
| \  slide down
| h  hammer-on
| p  pull-off
| ~  vibrato
| +  harmonic
| x  Mute note
===============================================================================
            
Submit corrections

comments powered by Disqus
↑ Back to top | Generation Unleashed Bass for Shout It Out. Lyrics for acoustic guitar and electric guitar. Tablatures and chords are parodies/interpretations of the original songs. You may use it for private study, scholarship, research or language learning purposes only