>
 >
He Lives

He Lives Guitar Tabs

Generation Unleashed - He Lives chords, tabs, tablatures, lyrics

Guitar lessons | Add/correct | Request | Top 50 tabs Artists:  A B C D E F G H I J K L M N O P Q R S T U V W X Y Z 0-9

He Lives Guitar Tabs – Generation Unleashed

CD, Sheet music, Poster

Do you like He Lives? Share with your friends now
ChordsTabsUkulele

Intro Part 1: x4

e:-----------------------------|
B:-----------------------------|
G:--9-9---9-9---9/11--11-11-9--|
D:-----------------------------|
A:--7-7---7-7---7/9----9--9-7--|
E:-----------------------------|

Intro Part 2: x2

e:------------------------------------------------|
B:--12---12---12-12---10---12---12---12-12---17---|
G:--14b--14b--14b14b--12b--14b--14b--14b14b--19b--|
D:------------------------------------------------|
A:------------------------------------------------|
E:------------------------------------------------|


Verse 1(All Chords): x2

E     G      C         D
   My God is Alive and well today

E       G            C        D
   He's Alive and He lives in me

E          G     C        D
   And I'm Gonna show the world today

E         G        C      D
   That I Love You That I Love You


Pre-Chorus: E, C, G, D


Chorus: x2

E        E
He Lives He Lives

G       C
Let The World Know

G       C
Let the world know

     D
That our god lives


Verse 2 (All Chords): x2

E     G            C         D
   My God paid the price and died for me

E              G        C      D
   He paid the price to set me free

E          G     C        D
   And I'm gonna show the world today

E         G        C      D
   That I love You that I love You


Riff Into Chorus: x1

e:---------------------------|
B:--5----7----8----10--------|
G:--7b---9b---10b--12b-------|
D:---------------------------|
A:---------------------------|
E:---------------------------|

Chorus: x2

E        E
He Lives He Lives

C       G
Let The World Know

C       G
Let The World Know

     D
That Our God Lives


Bridge:

e:-------------------------------------------------|
B:-------------------------------------------------|
G:-------------------------------------------------|
D:-----5-5------------5-5--------------------------|
A:--7-7---7-7-5-5--7-7---7-7-5-5----------55555555-|
E:-------------------------------33333333----------|

e:------------------------------------------------|
B:------------------------------------------------|
G:-------12-12------------------12-12-------------|
D:--14-14-----14-14-12-12--14-14-----14-14-12-12--|
A:------------------------------------------------|
E:------------------------------------------------|


I'm not totally certain on what to do here, so here are the chords:

C                      G
Were the Light Shining in the dark

           D                         E
Were gonna shine so this world knows who you are

C                      G
We won't stop 'til the whole world knows

            D
We're gonna shine for all to see


Riff after "We're gonna shine for all to see":

e:-------------------------|
B:--13-13-12-12-10-10-8-8--|
G:-------------------------|
D:-------------------------|
A:-------------------------|
E:-------------------------|

C                      G
Were the Light Shining in the dark

           D                         E
Were gonna shine so this world knows who you are

C                      G
We won't stop 'til the whole world knows

            D
We're gonna shine for all to see


Chorus:

E        E
He Lives He Lives

C       G
Let The World Know

C       G
Let The World Know

     D
That Our God Lives


Outro Riff:

e:-----------------------------------------12---|
B:--5----7----8----10---12---13---15---12--14b--|
G:--7b---9b---10b--12b--14b--15b--17b-----------|
D:----------------------------------------------|
A:----------------------------------------------|
E:----------------------------------------------|

Thanks!

Please Rate!

~Dopeydo2~





Comments


Popular Generation Unleashed tabs & chords
Shout It Out Bass Tabs
Found In You Chords
I Love You Lord Chords
Most Worthy Chords
Be Lifted Up Ukulele
He Lives Ukulele
I Am Alive Ukulele
I Love You Lord Ukulele
Most Worthy Ukulele
Shout It Out Ukulele


Song lyrics



↑ Back to top | Tablatures and chords are parodies/interpretations of the original songs. You may use it for private study, scholarship, research or language learning purposes only
© 2014 AZChords.com Contact us | Privacy policy | DMCA | Add/correct tabs | Request tabs | Top 50 tabs