» » »

Always Tabs (ver.1)

Artists:  A B C D E F G H I J K L M N O P Q R S T U V W X Y Z # 

Always Tabs (ver.1)

Generation Unleashed
Rating:
0/5 (0 votes)

Hard to play? Try these video lessons and learn fast.
                Intro: x2

PM-------------------------------------------------------------------

e: ------------------------------------------------------------------|
B: ------------------------------------------------------------------|
G: ------------------------------------------------------------------|
D: --3333333344444444333333331111111133333333444444443333333311111111|
A: ------------------------------------------------------------------|
E: ------------------------------------------------------------------|

Main Riff: x4

e: ----------------------------------1313---------------------------------|
B: --14141414141414141616161616161616----14141414141414141313131313131313-|
G: -----------------------------------------------------------------------|
D: -----------------------------------------------------------------------|
A: -----------------------------------------------------------------------|
E: -----------------------------------------------------------------------|

e: --161413---|
B: --------13-|
G: -----------|
D: -----------|
A: -----------|
E: -----------|

Verse: 4x While Singing) Hint:(Make D Form on 13th Fret)

e: --13----13----13--14----14----14--13----13----13--16----16----16---|
B: ----14----14--------14----14--------14----14--------14----14-------|
G: ------13----13--13----13----13--14----13----13--13----13----13--13-|
D: -------------------------------------------------------------------|
A: -------------------------------------------------------------------|
E: -------------------------------------------------------------------|

Chorus: Main Riff x4

Verse 2: Same as Verse 1 except x5

Chorus: Main Riff x4

Bridge: x6

e: ------------------------------13----------------14131314131416-|
B: --1413131413131414161414161414--1413131413131413---------------|
G: ---------------------------------------------------------------|
D: ---------------------------------------------------------------|
A: ---------------------------------------------------------------|
E: ---------------------------------------------------------------|

Chorus Right After Bridge:

I lift my hand to say -- Powerslide -- How much I Need You

During the "'Cause You are Everything" Part. He Does This:

e: ----13----14----1413--------13----16----1413---|
B: --14--1413--1316----1413--14--1413--1316----14-|
G: ------------------------13---------------------|
D: -----------------------------------------------|
A: -----------------------------------------------|
E: -----------------------------------------------|

Chorus
            
Hard to play? Try these video lessons and learn fast. | Correct




comments powered by Disqus
↑ Back to top | Tablatures and chords are parodies/interpretations of the original songs. You may use it for private study, scholarship, research or language learning purposes only