» » »

Generationals, Nobody Could Change Your Mind Chords (ver.1)

Artists:  A B C D E F G H I J K L M N O P Q R S T U V W X Y Z # 

Nobody Could Change Your Mind Chords (ver.1)

Generationals Tabs
 Rating:
4/5 (4 votes)
Nobody Could Change Your Mind lessons Tabs too difficult? Try these video lessons and learn fast
1
                The Generationals
Con Law
2009

"Nobody could change your mind"

E
When you wear your black sunglasses
Bm7    A            
Nobody could change your mind
E
You are up for the snitch of the century
Bm7    A
Nobody could change your mind
E
I never bought the connection
Bm7               A
The connection is made, couldn't you say?
E
But we could all see it coming along
Bm7    A
Nobody could change your mind

   E                                      Bm7                A                  E
E:---------------------------------------------------------------------------------|
B:-----------12----12------------12----12-7---------12----12-----------12----12----|
G:-9-9h11s13----13----9--9h11s13----13------9h11s13----13----9-9h11s13----13----9--|
D:---------------------------------------------------------------------------------|
A:---------------------------------------------------------------------------------|
E:---------------------------------------------------------------------------------|

   E                               Bm7          A
E:----------------------s12-10-9s7---s12-10-9s7------------------------------------|
B:---------12----12----------------7-----------------------12----12----------------|
G:-9h11s13----13----9---------------------------9--9h11s13----13----9--------------|
D:---------------------------------------------------------------------------------|
A:---------------------------------------------------------------------------------|
E:---------------------------------------------------------------------------------|

E    Bm7  A
E    Bm7  A

E
I have to wonder what you say to yourself
Bm7                                    A
I have to wonder what you're saying to me
E
I sat up in my bed when they called me up and said
Bm7                                    A  
They saw you walking down on Boulevard Saint-Denis (and you were)
E
Making a face, you were stabbing at the sidewalk
Bm7                 A
You got somebody to give you the time
E
But we could all see it coming along
Bm7    A
Nobody could change your mind

E:--------------------------------------------------------|
B:--------------------------------------------------------|
G:--------------------------------------------------------|
D:---------------------9-9-9-9-9------7-7-7-7-7-----------|
A:-9-9999--99999-99--------------9-9-------------7-7------|
E:--------------------------------------------------------|


There was a message from your sister and Christina to me
Nobody could change your mind
They said you really don't need those glasses to see
Nobody could change your mind
And that you never will admit when your decisions are wrong
Nobody could change your mind
But we could all see it coming along
Nobody could change your mind
You should see if you can remember any numbers at all
Nobody could change your mind
Before the haze sets in and there's no one to call
Nobody could change your mind
And you've been keeping up appearances for ever so long
Nobody could change your mind
But we could all see it coming along
Nobody could change your mind 


Bass parts:
   E               Bm7     A
E:-----------------------------------|
B:-----------------------------------|
G:-----------------------------------|
D:-----------------------------------|
A:-9----9---9---9--------------------|
E:----9-------9----9--0-9--7--0-7----|


Bass parts in the end:
   E            Bm7    A
E:-----------------------------|
B:-----------------------------|
G:-----------------------------|
D:--------------9---9--7---7---|
A:-9-9-9-9-9-9----9------7-----|
E:-----------------------------|
variation:
   E             Bm7    A
E:-----------------------------|
B:-----------------------------|
G:-----------------------------|
D:---------------9------7------|
A:-9-9-9-9-9-9-----9-9----7-7--|
E:-----------------------------|
            
Submit corrections

comments powered by Disqus
↑ Back to top | Generationals Chords for Nobody Could Change Your Mind. Lyrics for acoustic guitar and electric guitar. 1 Tablatures and chords are parodies/interpretations of the original songs. You may use it for private study, scholarship, research or language learning purposes only