» » »

Goose And Gander Bass tabs (ver.1)

Artists:  A B C D E F G H I J K L M N O P Q R S T U V W X Y Z # 

Goose And Gander Bass tabs (ver.1)

Generationals
Rating:
0/5 (0 votes)

Tabs too difficult? Try these video lessons and learn fast.
                -------------------------------------------------------------------------------
-------------------------------------------------------------------------------

Bass tab for Goose and Gander by Generationals off their new album Actor-Caster. Really 
fun bassline, like most of their songs. I would really like to see more bass tabs for 
their music.

The counts on the notes aren't completely accurate, listen to the rhythm to get the feel.

Note all 10s are tenth fret, not first and open

Tuning: Standard
Main Riff
G|------------------------------------------------------------------|
D|---------------------------------5--5-----------------------------|
A|77--7--7----------55--5--55--5---------77--7--7-------------------|
E|-----------5--555---------------------------------5---5--5--------|

G|-------------------------------------------------------------|
D|9--9--99--9--9--------77--7--7777--7--77---7-99--9--9--------|
A|---------------10--10----------------------------------------|
E|-------------------------------------------------------------|

G|-----------------------------------------------------------|
D|-----------------------------------------------------------|
A|1010-10--1010---10-------------1010--10--1010--10---5------|
E|---------------------10101010------------------------------|

Chorus
G|---------------------------------------------------------|
D|--------------55555-5----------------------------555-----|
A|5555--5555-55---------7--7--79--99--5555-5555-55------7-7|
E|---------------------------------------------------------|

G|------------------------------------------------------------------|
D|----------7777--777-7-7-799--9--9---------------------------------|
A|99999-9-----------------------------1010-10-101010------------1010|
E|-----------------------------------------------------10101010-----|

G|------------------------------------------------------------------|
D|------------------------------------------------------------------|
A|------10--1010--10---10----5--------------------------------------|
E|------------------------------------------------------------------|

Bridge
G|-------------------------------------------------------------------|
D|-------------9---99------------5-----------------------------------|
A|7--77---------------10---5--55-----7--77--7------------------------|
E|------5------------------------------------------------------------|

G|-------------------------------------------------------------------|
D|-------5---------9-------------------------------------------------|
A|5--55------10-9-7-------------1010---10--10---10---5---------------|
E|----------------------10--10---------------------------------------|
Order:
Main Riff x3
Chorus x1
Bridge x1
Main Riff x1
Chorus x1

| /  slide up
| \  slide down
| h  hammer-on
| p  pull-off
| ~  vibrato
| +  harmonic
| x  Mute note
===============================================================================
            
Tabs too difficult? Try these video lessons and learn fast.




comments powered by Disqus
↑ Back to top | Tablatures and chords are parodies/interpretations of the original songs. You may use it for private study, scholarship, research or language learning purposes only