» » »

General Fiasco, Talk To My Friends Bass tabs (ver.1)

Artists:  A B C D E F G H I J K L M N O P Q R S T U V W X Y Z # 

Talk To My Friends Bass tabs (ver.1)

General Fiasco Tabs
 Rating:
4/5 (4 votes)
Talk To My Friends lessons Tabs too difficult? Try these video lessons and learn fast
                HOPE YOU UNDERSTAND IT :) IF NO, LOOK AT THIS LIVE VIDEO OF GENERAL FIASCO 

Verse
--------------------|       <----- this x2 ...then,
---12---13---15-----|
--------------------|
--------------------|




----12---11---9--11-|       <----- this x2
--------------------|
--------------------|
--------------------|



--------------------|       <----- this x2 ...then,
---12---13---15-----|
--------------------|
--------------------|





----12---11---9--11-|       <----- this x2
--------------------|
--------------------|
--------------------|


     ^I don't know the timing for the first verse, you can figure it by yourself :D its 
easy) and then the next part goes:

"This should be easy on you, on you"

--------------------|
--------12----------|    <----- let ring
--------------------|
--------------------|


"This should be easy, I think we'll start again"

--------------------|
--------7-----------|    <----- let ring
--------------------|
--------------------|

"This should be easy on..."
--------------------|
--------12----------|    <----- let ring
--------------------|
--------------------|

"You..."

--------------------|
---------2----------|    <----- let ring
--------------------|
--------------------|

|____________________________________________________|

        ^reapeat all of the verse x2

Chorus

--4--4--4--4------------|
------------------------|
-2--2--2--2-------------|
------------------------|

--7--7--7--7------------|
------------------------|
-5--5--5--5-------------|
------------------------|

--9--9--9--9------------|
------------------------|
-7--7--7--7-------------|
------------------------|


|____________________________________________________|

        ^reapeat all of the chorus x4


repeat all the verse but only 1 time, except for:

"This should be easy on you, on you"

--------------------|
--------12----------|    <----- let ring
--------------------|
--------------------|


"This should be easy, I think we'll start again"

--------------------|
--------7-----------|    <----- let ring
--------------------|
--------------------|

"This should be easy on..."
--------------------|
--------12----------|    <----- let ring
--------------------|
--------------------|

"You..."

--------------------|
---------2----------|    <----- let ring
--------------------|
--------------------|

and for the second time you don´t make it ring, if hear the song you will know what I mean

then repeat chorus


and for the outro

--------------------|       <----- this x2
---12---13---15-----|
--------------------|
--------------------|
            
Submit corrections

comments powered by Disqus
↑ Back to top | General Fiasco Bass for Talk To My Friends. Lyrics for acoustic guitar and electric guitar. Tablatures and chords are parodies/interpretations of the original songs. You may use it for private study, scholarship, research or language learning purposes only