» » »

Ever So Shy Tabs (ver.2)

Artists:  A B C D E F G H I J K L M N O P Q R S T U V W X Y Z # 

Ever So Shy Tabs (ver.2)

General Fiasco
Rating:
0/5 (0 votes)

Tabs too difficult? Try these video lessons and learn fast.
                               -------------------------------------------
                     Ever So Shy - General Fiasco
               -------------------------------------------

Band: General Fiasco


Tuning: STANDARD (E A D G B e)

This is tabbed out for one guitar on acoustic.It's hard to describe the strumming 
i used, so I've just shown the number of strums i do. from that you can decide what sounds 
for you personally
Any correcton i will be happy to change.

Capo 2nd Fret,
All chords relative to capo.

Key:
    x = Pal Mute

Verse1-

Lets get wasted Its all we ever do
Were so stupid But thats ok the drunks are your friends
Well just sit here Wasting our time
Thinking about our life Theres nobody listening
|-------3----------3----------1--------------------------|
|-------4----------3----------1--------------------------|
|-------5-(x32)----4-(x16)----2-(x16)--------------------|
|-------5----------5----------3--------------------------|  x2
|-------3----------5----------3--------------------------|
|------------------3----------1--------------------------|
        x          x          x

Before chorus-

|--0-------0-|
|--1-------1-|
|--2-(x8)--2-|
|--0-------0-|
|--3-------3-|
|------------|

Chorus-

Well Im ever so cold Is all I get told, Im ever so cold
Youre ever so shy You keep it aside
Its more than just lies
Your ever so cool And Ill be a fool if you let me
Im ever so shy, youre ever so shy, were ever so shy

|--3---------1---------0-------|
|--0---------1---------1-------|
|--0---------2---------2-------|
|--0-(x6)----3-(x6)----0-(x14--|  x4
|--2---------3---------3-------|
|--3---------1-----------------|

Verse 2-

(Same as verse1 but after every 3 palm muted notes, pluck one normal chord)

And all we are Coming up with reasons to be shy she is
Cutting out the reasons to try
I know I know were getting there
I know were coming down lets be prepared
Waiting around in the back bored as anything
5 minutes more of this and this is wearing thin
I know I know were getting there
I know were coming down lets pretend

Chorus-

(Same)

Bridge-

Why you know the ones, theyre coming for you
Why you know the ones, theyre coming for you

Why you know the ones, theyre coming for you
Why you know the ones, theyre coming for you

|-----------|       |---3-------3-|       |----1-------1--|
|--1------1-|       |---3-------3-|       |----1-------1--|
|--2-(x2)-2-|(x4)   |---4-(x2)--4-|(x4)   |----2-(x2)--2--|(x8) x2
|--2------2-|       |---5-------5-|       |----3-------3--|
|-----------|       |---5-------5-|       |----3-------3--|
|-----------|       |---3-------3-|       |----1-------1--|
   x                    x                      x

Chorus-

(Same)

Verse3-

Lets get wasted Its all we ever do
Were so stupid But thats ok the drunks are your friends

|-------3----------3-------|
|-------4----------3-------|
|-------5-(x32)----4-(x16)-|
|-------5----------5-------|
|-------3----------5-------|
|------------------3-------|
        x          x
Please rate if you like.
Thanks.
            
Tabs too difficult? Try these video lessons and learn fast.




comments powered by Disqus
↑ Back to top | Tablatures and chords are parodies/interpretations of the original songs. You may use it for private study, scholarship, research or language learning purposes only