>
 >
Ti I Ja

Ti I Ja Guitar Tabs

Generacija 5 - Ti I Ja chords, tabs, tablatures, lyrics

Guitar lessons | Add/correct | Request | Top 50 tabs Artists:  A B C D E F G H I J K L M N O P Q R S T U V W X Y Z 0-9

Ti I Ja Guitar Tabs – Generacija 5

CD, Sheet music, Poster

Do you like Ti I Ja? Share with your friends now
Tabs
figure 1: intro           prvi put                 drugi
 Am Em          C                           F  G    put
-0-----0----0---0--1--0-]-0-----0-----0-----1--3-]--3-----5-
-1--0--1--0-1-0-1--3--1-]-1--0--1---0-1--0--1--3-]--3-----5-
-2--0--2--0-2-0-0--2--0-]-2--0--2---0-0--0--2--4-]--4-----5-
-2--0--2--0-2-0-2--0--2-]-2--0--2---0-2--0--3--5-]--5---5-7-
-0-----0----0---3-----3-]-0-----0-----3-----3--5-]--5---5-7-
------------------------]-------------------1--3-]--3-----5-

figure 2: main riff      prvi put            drugi put
A5 G5           D5  C5                  F5  
-----------------------]--------------------]--------------
-----------------------]--------------------]--------------
-----------------------]--------------------]--------------
-----------------------]--------------------]--------------
-7--5-7--5-7-5-7-12-10-]-7--5-7--5-10-7-3-5-]--7-7--5--7-7-
-5--3-5--3-5-3-5-10--8-]-5--3-5--3--8-5-1-3-]--5-5--3--5-5-

figure 3: verse
Em        D                   C                   D
 d  u d u d d
-7--x-x-x---7------7----------8--x-x-x-x------8--10--------
-8--x-x-x-7-8------8-7--ovo---8--x-x-x-x------8--10--------
-9--x-x-x-7-9--X3--9-7--sve---9--x-x-x-x--X3--9--11--------
-9--x-x-x-7-9------9-7--X2---10--x-x-x-x-----10--12--------
-7--x-x-x---7------7---------10--x-x-x-x-----10--12--------
------------------------------8--x-x-x-x------8--10--------

figure 4: pre-chorus

--------------------- ---------------------15------15------
-------------------- ----------------15(17)--15(17)--15(17)
-----------------------------------------------------------
-5---7-----------------------------------------------------
-3---5---7-5--5-3--3-5-7-------3--5------------------------
--------------------------5-3--1--3------------------------

                     ritam gitara preko ovog sola

-------15-----------]--------------------------------------
-15(17)--(17)^15-13-]--------------------------------------
--------------------]--------------------------------------
--------------------]--------------------------------------
--------------------]-7-5--5-3--3-5-7----------------------
--------------------]--------------------------------------

figure 3
Ne pisem nista
vise ne gresim.
?????
Za samo jedan,jedan dan.

Bezis od kuce,
a ne bi smela.
Bila bi sa mnom 
a sve bi htela.
Za samo jedan,jedan dan.

pre-chorus: figure 4
  Promisli dobro, odluci se.
  I podji sa mnom bolo gde.

refren: figure 2
       Ti i ja, od danas do sutra.
       Zajedno bez mira i sna.
       Ti i ja, od noci do jutra 
       a posle ko zna.  

figure 5:
pocetak sola                                           etc...
----------------------------20(22)-17^20^17--17--------------
-20(22)-20(22)-20(22)-20-17----------------20--20-17---------
----------------------------------------------------19-------
------------------------------------------------------19-----
-------------------------------------------------------------
-------------------------------------------------------------

kraj sola
-----------------------------------20(22)--------------------
-17^20---17^20---17^20---17^20---17--------------------------
------19------19------19------19-----------------------------
-------------------------------------------------------------
-------------------------------------------------------------
-------------------------------------------------------------

u= upstroke 
d= downstroke
x= mute lijevom rukom
20(22)=bend C cijelu notu(do D)
(17)^15= pre-bend = prvo bend D cijelu notu pa ju tek onda 
odsviraj.





Comments


Popular Generacija 5 tabs & chords
Ti Samo Budi Dovoljno Daleko Chords
Dolazim Za Pet Minuta Tabs
Povedi Me U Noc Tabs
Sta Ce Mo Nas Dvoje Tabs
Ti Samo Budi Dovoljno Daleko Ukulele


Song lyrics



↑ Back to top | Tablatures and chords are parodies/interpretations of the original songs. You may use it for private study, scholarship, research or language learning purposes only
© 2014 AZChords.com Contact us | Privacy policy | DMCA | Add/correct tabs | Request tabs | Top 50 tabs