» » »

Gene, Youll Never Walk Again Bass tabs (ver.1)

Artists:  A B C D E F G H I J K L M N O P Q R S T U V W X Y Z # 

Youll Never Walk Again Bass tabs (ver.1)

Gene Tabs
 Rating:
4/5 (4 votes)
Youll Never Walk Again lessons Tabs too difficult? Try these video lessons and learn fast
1
                Intro
G |-----------|-----2----------2-------|
D |----REST---|-------2----------2-----|
A |-----------|-0-4-----4-0--4-----4-0-|
E |-----------|------------------------|

Verse 1
G |-----2----------7--------|
D |-------2------4---5424---|
A |-0-4-----4-2-----------0-|
E |-------------------------|

G |-----2----------7--------|
D |-------2------4---5424---|
A |-0-4-----4-2-----------0-|
E |-------------------------|

G |-----2----------7--------|
D |-------2------4---5424---|
A |-0-4-----4-2-----------0-|
E |-------------------------|

G |-----2----------7-------|----------|
D |-------2------4---5424--|---REST---|
A |-0-4-----4-2----------0-|----------|
E |------------------------|----------|

Chorus 1
G |-------------------------------------------------------|
D |-7-----6-----------------------------------------------|
A |--------------7---------5------------------------------|
E |-------------------------------------------------------|

G |-------------------------------|
D |----------------------------/9-|
A |-9------------7---------5------|
E |---------------------------7---|

G |---9-14-79-79-6---9-14--------|
D |-7--------------7-------------|
A |----------------------------0-|
E |--------------------------0---|

Verse 3
G |-----2----------7--------|
D |-------2------4---5424---|
A |-0-4-----4-2-----------0-|
E |-------------------------|

G |-----2----------4--------|
D |-------2------4---5424---|
A |-0-4-----4-2-------------|
E |-------------------------|

Chorus 2
G |-------------------------------------------------------|
D |-7-----6-----------------------------------------------|
A |--------------7---------5------------------------------|
E |-------------------------------------------------------|

G |-------------------------------|
D |----------------------------/9-|
A |-9------------7---------5------|
E |---------------------------7---|

G |-------------------------------------------------------|
D |-7-----6-----------------------------------------------|
A |--------------7---------5------------------------------|
E |-------------------------------------------------------|

G |---------------------------------|--------|
D |----------------------------/9-7-|--REST--|
A |-9------------7---------5--------|--------|
E |---------------------------7-----|--------|

Change 1
G |-----------------------7-------6------------------------------|
D |-0-2-4---------------/7-----------------4-2-0-----------------|
A |------------------------------------------------------------4-|
E |--------------------------------------------------------------|

G |----------------------------------------------------------|
D |---------------------------------------0--------------242-|
A |-4-2-0------------------------------02--------------------|
E |-----------------2----------------------------------------|

G |-----------------------7-------6------------------------------|
D |-0-2-4---------------/7-----------------4-2-0-----------------|
A |------------------------------------------------------------4-|
E |--------------------------------------------------------------|

G |----------------------------------------------------------|
D |---------------------------------------0--------------242-|
A |-4-2-0------------------------------02--------------------|
E |-----------------2----------------------------------------|

Solo
G |----------------1--------------------------------------------|
D |-00----22-0-2-4--2-0-----2-0-2-4--2-0------------------------|
A |---2-0---------------2-0--------------44-2-0-44-2-0----------|
E |----------------------------------------------------2-0-2----|

G |--------------------1-2-4-6-7-9-|
D |-----0-----0----242-------------|
A |-0-4---2-0---20-----------------|
E |--------------------------------|

Change 2
G |----------------1--------------------------------------------|
D |-00----22-0-2-4--2-0-----2-0-2-4--2-0------------------------|
A |---2-0---------------2-0--------------44-2-0-44-2-0----------|
E |----------------------------------------------------2-0-2----|

G |--------------------|
D |-----0-----0----242-|
A |-0-4---2-0---20-----|
E |--------------------|

Change 3
G |-------------------------------------------------------------------|
D |-------------------------------------------------------------2-4-2-|
A |--------4--2--0---------------------------------0-2----------------|
E |------------------------------2--0--2------------------------------|

G |--------------------------------------|
D |--------------------------------------|
A |-------4--2--0------------------------|
E |-----------------------------2--0--2--|

G |-----------------------------------|
D |--------0--------------------2-4-2-|
A |--0--------------------------------|
E |-----------------------------------|

G |-------------------------------------------------------------------|
D |-------------------------------------------------------------2-4-2-|
A |--------4--2--0---------------------------------0-2----------------|
E |------------------------------2--0--2------------------------------|

G |--------------------------------------|
D |--------------------------------------|
A |-------4--2--0------------------------|
E |-----------------------------2--0--2--|

G |-------------------------------|------|
D |--------0-0-------0-0--------2-|-REST-|
A |--0---------2-0-------2-0------|------|
E |-------------------------------|------|

Outro
G |-----2----------2-------|
D |-------2----------2-----|
A |-0-4-----4-0--4-----4-0-|
E |------------------------|

G |-----2----------2-------|
D |-------2----------2-----|
A |-0-4-----4-0--4-----4-0-|
E |------------------------|

G |-----2----------2-------|
D |-------2----------2-----|
A |-0-4-----4-0--4-----4-0-|
E |------------------------|

G |-----2-------|------||
D |-------2-----|-REST-||
A |-0-4-----4-0-|------||
E |-------------|------||
            
Submit corrections

comments powered by Disqus
↑ Back to top | Gene Bass for Youll Never Walk Again. Lyrics for acoustic guitar and electric guitar. 1 Tablatures and chords are parodies/interpretations of the original songs. You may use it for private study, scholarship, research or language learning purposes only