» » »

Gene, London Can You Wait? Bass tabs (ver.1)

Artists:  A B C D E F G H I J K L M N O P Q R S T U V W X Y Z # 

London Can You Wait? Bass tabs (ver.1)

Gene Tabs
 Rating:
4/5 (4 votes)
London Can You Wait? lessons Tabs too difficult? Try these video lessons and learn fast
1
                Intro
          A                   F#m              Bm 
G |-----|---------2--------------------2--/6--4------------------|
D |-----|------------2--4-----------------------4----------------|
A |-4-2-|-0---4---------------0-----0---------------0-/4---------|
E |-----|------------------------2-------------------------0--4--|

    A                  F#m             Bm    Dm     E
G |---------2--------------------2--/6--4-------------|
D |------------2--4-----------------------4--6-7-6----|
A |-0---4---------------0-----0-----------------------|
E |------------------------2-----------------------\0-|


Verse 1
              A           F#m
G |--------------2------------------|
D |---------------------------4-----|
A |-----------0---------------------|
E |------------------------2--------|

        Bm
G |-4/6--------4-----------------------2-------------|
D |--------------------4---------------------2--2----|
A |--------------------------------------------------|
E |--------------------------------------------------|

                     A     F#m           Bm                  C#m
G |--------------------2---------------4/6-4-----1-2-----------|
D |---------------------------------4--------4------2-----4----|
A |------------------0-------------------------------------2-4-|
E |-2--4--------------------2----------------------------------|

                       Bm                                C#m
G |---------------------------------------------------------|
D |-2-----2--2/4-2---------------------------------2--------|
A |---34-----------2--5-2-------4------------------------4--|
E |---------------------------------------------------------|

                         D       E
G |-------------------------------------------|
D |-2------2----2/4--2------------------------|
A |---34-----------------5-4-2-0-2------------|
E |--------------------------------0-0-0-0-0--|


Verse 2

G |------------------------------|
D |-----------------242----------|
A |-0----------------------------|
E |---------------------------2--|

G |-----------------------------------------------------------|
D |-----------------------------------------------------------|
A |--0--------2-----------------------------------------------|
E |---------------------------------------------------0-----4-|

G |------------------------------|
D |-----------------242----------|
A |-0----------------------------|
E |---------------------------2--|

G |-----------------------------------------------------------|
D |-----------------------------------------------------------|
A |--0--------2-----------------------------------------------|
E |---------------------------------------------------0-----4-|

          C#m
G |----------|
D |----------|
A |--------4-|
E |-2--4-----|

                       Bm                                C#m
G |---------------------------------------------------------|
D |-2-----2--2/4-2----------------------2-4-2---------------|
A |---34-----------5----2----5----------------------------4-|
E |---------------------------------------------------------|

                                  D    E
G |--------------------------------------------|
D |-2------2----2/4--2---------------2-2-2-4-2-|
A |---34-----------------5-4-2-0-2-------------|
E |--------------------------------------------|


Chorus

    D                 E      F#m         A                     
G |------------------------------------------------------------|
D |--------------------------------------7---------------------|
A |-5-----------------7--------9-------------------0-22-0-22-4-|
E |------------------------------------------------------------|

   D       E     F#m   A
G |----------------------------------|
D |--------------------7-----7-6-----|
A |-5------7------9--------------9-7-|
E |----------------------------------|

    D                E         F#m       A
G |------------------------------------------------------------|
D |--------------------------------------7---------------------|
A |-5-----------------7--------9-------------------0-22-0-22-4-|
E |------------------------------------------------------------|

       D       E       F#m  E
G |---------------------------|
D |---------------------------|
A |-5---------7--------9----7-|
E |---------------------------|

       D                E              F#m      A
G |-----------------------------------------------------|
D |-----------------------------------------------------|
A |---5-5-5-5-----------------------------------0-0-0-0-|
E |--------------------0-0-0-0---------2-2-2-2----------|

      D                    E           F#m       A
G |-----------------------------------------------------|
D |-----------------------------------------------------|
A |---5-5-5-5-----------------------------------0-0-0-0-|
E |--------------------0-0-0-0---------2-2-2-2----------|


Outro

      D                E                F#m     A 
G |-----------------------------------------------------|
D |-----------------------------------------------------|
A |---5-5-5-5-----------------------------------0-0-0-0-|
E |--------------------0-0-0-0---------2-2-2-2----------|


      D            Dm         A
G |-------------------------------------||
D |----------------------------------11-||
A |-2-4-5----------7--8------12--14-----||
E |-------------------------------------||
            
Submit corrections

comments powered by Disqus
↑ Back to top | Gene Bass for London Can You Wait?. Lyrics for acoustic guitar and electric guitar. 1 Tablatures and chords are parodies/interpretations of the original songs. You may use it for private study, scholarship, research or language learning purposes only