» » »

Gemma Hayes, Oliver Tabs (ver.1)

Artists:  A B C D E F G H I J K L M N O P Q R S T U V W X Y Z # 

Oliver Tabs (ver.1)

Gemma Hayes Tabs
Rating:
0/5 (0 votes)
Oliver lessons Tabs too difficult? Try these video lessons and learn fast
                ------------------------------------------------------------------------------
------------------------------------------------------------------------------

Tuning: DADGAD

Verse & Chorus:

d|--------------------------------------------------------------------------|
a|-----12----12-----12----12-----12----12-----12----12-----9---9-----9---9--|
G|--------11-----------11-----------11-----------11----------9---------9----|
D|------------------------------------------------------11--------11--------|
A|--------------------------------------------------------------------------|
D|--12-----------12-----------12-----------12-------------------------------|

d|--------------------------------------------------------------------------|
a|-----9---9-----9---9-----9----9-----9----9-----9----9-----9---9----9---9--|
G|-------9---------9---------------------------------------------------7----|
D|--11--------11-------------12---------12---------12-----------------------|
A|----------------------10---------10---------10---------10---9----7--------|
D|--------------------------------------------------------------------------|

d|------------------------------|
a|----9---9----9---9----10---7--|
G|------7--------7---------9----|
D|------------------------------|
A|--7--------7--------7---------|
D|------------------------------|

Outro:

Play above twice and follow with:

d|--------------------------------------------------------------------------|
a|----4---4----4---4----4---4----4---4--------------------------------------|
G|------6--------6--------6--------6------4---4----4---4----4---4----4---4--|
D|------------------------------------------7--------7--------7--------7----|
A|--5--------5--------5--------5--------7--------7--------7--------7--------|
D|--------------------------------------------------------------------------|

d|--+12+--|
a|--+12+--|
G|--+12+--|
D|--+12+--|
A|--+12+--|
D|--+12+--|



| /  slide up
| \  slide down
| h  hammer-on
| p  pull-off
| ~  vibrato
| +  harmonic
| x  Mute note
===============================================================================
            

comments powered by Disqus
↑ Back to top | Gemma Hayes Tabs for Oliver. Lyrics for acoustic guitar and electric guitar. Tablatures and chords are parodies/interpretations of the original songs. You may use it for private study, scholarship, research or language learning purposes only