» » »

Grace To Grace Tabs (ver.1)

Artists:  A B C D E F G H I J K L M N O P Q R S T U V W X Y Z # 

Grace To Grace Tabs (ver.1)

Geddy Lee
Rating:
5/5 (1 vote)

Hard to play? Try these video lessons and learn fast.
                

Copyright 2000 Atlantic Recordording Corporation & Anthem Entertainment
Song written and composed by Geddy Lee & Ben Mink (Copyright 2000 Boge Songs)

There are miscellaneous bends, slides with a slide, & an extra guitar riff
overdubbed within the song but they can be easily mimicked & arent really
necessary to do so for a live performance so they arent included here.

The wierd dry scratchy-echoey sounds within the mellow choruses sound like
some kind of synth stuff to me although it may be guitar processed in
some way. It's possibly similar to U2's The Edge's sound in the song Numb with
extreme compression, noise gate set to kill & delay.
But again, I think it's synth sounds.

Initial submission/Creation of this Tab 02/01/2001
Reposted on 06/03/2001

--------------------------------|-------------------------------|-------------|
--------------------------------|-------------------------------|-------------|
--------------------------------|-------------------------------|-------------|
-----------------2-------4------|----------------2-------4------|-------------|
-----2-------4------------------|----2-------4------------------|-------------|
-2-2----------------------------|2-2----------------------------|-------------|
 1 & 2 & 3 & 4 & 5 & 6 & 7 & 8 & 1 & 2 & 3 & 4 & 5 & 6 & 7 & 8 &

--------------------------------|-------------------------|-------------------|
--------------------------------|-------------------------|-------------------|
--------------------------------|-------------------------|-------------------|
-----------------2-------4------|----------------2-------4|-------------------|
-----2-------4------------------|----2-------4------------|-------------------|
-2---------------------------2-2|2------------------------|-------------------|


------------------|-----------------|-----------------|-----------------|-----|
------------------|-----------------|-----------------|-----------------|-----|
------------------|-----------------|-----------------|-----------------|-----|
------------------|--------2-------4|-----------------|--------2-------4|-----|
---------2-------4|-----------------|--------2-------4|-----------------|-----|
-2-2-2-2----------|2-2-2-2----------|2-2-2-2----------|2-2-2-2----------|-----|


------------------|-----------------|-----------------|---------------------||
------------------|-----------------|-----------------|------------------0--||
------------------|-----------------|-----------------|------2-----2--------||
------------------|--------2-------4|-----------------|--0h4---4-----4------||
---------2-------4|-----------------|--------2-------4|----------4-----4----||
-2-2-2-2----------|2-2-2-2----------|2-2-2-2----------|---------------------||


----------------|---------------|---------------|---------------|-------------|
----------------|---------------|---------------|---------------|-------------|
----------------|---------------|---------------|---------------|-------------|
-4-4-4-4-4-4-4--|7-7-7-7-7-7-7--|4-4-4-4-4-4-4--|7-7-7-7-7-7-7--|-------------|
-4-4-4-4-4-4-4--|7-7-7-7-7-7-7--|4-4-4-4-4-4-4--|7-7-7-7-7-7-7--|-------------|
-2-2-2-2-2-2-2--|5-5-5-5-5-5-5--|2-2-2-2-2-2-2--|5-5-5-5-5-5-5--|-------------|
 1 & 2 & 3 & 4 & 1 & 2 & 3 & 4 & 1 & 2 & 3 & 4 & 1 & 2 & 3 & 4 &

----------------|---------------|---------------|---------------|-------------|
----------------|---------------|---------------|---------------|-------------|
----------------|---------------|6-6-6-6-6-6-6--|6-6-6-6-6-6-6--|-------------|
-4-4-4-4-4-4-4--|7-7-7-7-7-7-7--|6-6-6-6-6-6-6--|7-7-7-7-7-7-7--|-------------|
-4-4-4-4-4-4-4--|7-7-7-7-7-7-7--|4-4-4-4-4-4-4--|7-7-7-7-7-7-7--|-------------|
-2-2-2-2-2-2-2--|5-5-5-5-5-5-5--|---------------|5-5-5-5-5-5-5--|-------------|


----------------|---------------|---------------|---------------|-------------|
----------------|---------------|---------------|---------------|-------------|
----------------|---------------|---------------|---------------|-------------|
-4-4-4-4-4-4-4--|7-7-7-7-7-7-7--|4-4-4-4-4-4-4--|7-7-7-7-7-7-7--|-------------|
-4-4-4-4-4-4-4--|7-7-7-7-7-7-7--|4-4-4-4-4-4-4--|7-7-7-7-7-7-7--|-------------|
-2-2-2-2-2-2-2--|5-5-5-5-5-5-5--|2-2-2-2-2-2-2--|5-5-5-5-5-5-5--|-------------|


----------------|---------------|---------------|---------------||------------|
----------------|---------------|---------------|---------------||------------|
----------------|---------------|6-6-6-6-6-6-6--|6-6-6-6-6-6-6--||------------|
-4-4-4-4-4-4-4--|7-7-7-7-7-7-7--|6-6-6-6-6-6-6--|7-7-7-7-7-7-7--||------------|
-4-4-4-4-4-4-4--|7-7-7-7-7-7-7--|4-4-4-4-4-4-4--|7-7-7-7-7-7-7--||------------|
-2-2-2-2-2-2-2--|5-5-5-5-5-5-5--|---------------|5-5-5-5-5-5-5--||------------|
                                                                  =Verses 1

----------------|---------------|---------------|---------------|-------------|
----------------|---------------|---------------|---------------|-------------|
----------------|---------------|---------------|---------------|-------------|
-6-6-6-6-6-6-6--|9-9-9-9-9-9-9--|6-6-6-6-6-6-6--|9-9-9-9-9-9-9--|-------------|
-6-6-6-6-6-6-6--|9-9-9-9-9-9-9--|6-6-6-6-6-6-6--|9-9-9-9-9-9-9--|-------------|
-4-4-4-4-4-4-4--|7-7-7-7-7-7-7--|4-4-4-4-4-4-4--|7-7-7-7-7-7-7--|-------------|


----------------|---------------|---------------|---------------|-------------|
----------------|---------------|---------------|---------------|-------------|
----------------|---------------|8-8-8-8-8-8-8--|8-8-8-8-8-8-8--|-------------|
-6-6-6-6-6-6-6--|9-9-9-9-9-9-9--|8-8-8-8-8-8-8--|9-9-9-9-9-9-9--|-------------|
-6-6-6-6-6-6-6--|9-9-9-9-9-9-9--|6-6-6-6-6-6-6--|9-9-9-9-9-9-9--|-------------|
-4-4-4-4-4-4-4--|7-7-7-7-7-7-7--|---------------|7-7-7-7-7-7-7--|-------------|


----------------|---------------|---------------|---------------|-------------|
----------------|---------------|---------------|---------------|-------------|
----------------|---------------|---------------|---------------|-------------|
-6-6-6-6-6-6-6--|9-9-9-9-9-9-9--|6-6-6-6-6-6-6--|9-9-9-9-9-9-9--|-------------|
-6-6-6-6-6-6-6--|9-9-9-9-9-9-9--|6-6-6-6-6-6-6--|9-9-9-9-9-9-9--|-------------|
-4-4-4-4-4-4-4--|7-7-7-7-7-7-7--|4-4-4-4-4-4-4--|7-7-7-7-7-7-7--|-------------|


----------------|---------------|---------------|---------------||------------|
----------------|---------------|---------------|---------------||------------|
----------------|---------------|8-8-8-8-8-8-8--|8-8-8-8-8-8-8--||------------|
-6-6-6-6-6-6-6--|9-9-9-9-9-9-9--|8-8-8-8-8-8-8--|9-9-9-9-9-9-9--||------------|
-6-6-6-6-6-6-6--|9-9-9-9-9-9-9--|6-6-6-6-6-6-6--|9-9-9-9-9-9-9--||------------|
-4-4-4-4-4-4-4--|7-7-7-7-7-7-7--|---------------|7-7-7-7-7-7-7--||------------|
                                                                  =Verses 2
            
Hard to play? Try these video lessons and learn fast. | Correct




comments powered by Disqus
↑ Back to top | Tablatures and chords are parodies/interpretations of the original songs. You may use it for private study, scholarship, research or language learning purposes only