» » »

Time Bomb Tabs (ver.2)

Artists:  A B C D E F G H I J K L M N O P Q R S T U V W X Y Z # 

Time Bomb Tabs (ver.2)

Gbh
Rating:
0/5 (0 votes)

Hard to play? Try these video lessons and learn fast.
                Band - G.B.H
Song - Time Bomb
Album - City Baby Attacked By Rats


Awesome Track By UK Punk Legends G.B.H!

Tuning: Standard (E A D G B E)

/=Slide
v=Vibrato

Intro
|---------------------------------------|
|---------------------------------------|
|-6----4----6----4----6----4----6----4--|
|-6----4----6----4----6----4----6----4--|
|-4----2----4----2----4----2----4----2--|
|---------------------------------------|

Pre Verse/Verse/Solo Rhythm
|-------------|
|-------------|
|-44----6666--|
|-44-44-6666--|
|-22-44-4444--|
|----22-------|

Chorus
|----x5-------|------------------------------|
|-------------|------------------------------|
|-7777-4-6-4--|-7777777777777777-9-9-9-9-9-9-|
|-7777-4-6-4--|-7777777777777777-9-9-9-9-9-9-|
|-5555-2-4-2--|-5555555555555555-7-7-7-7-7-7-|
|-------------|------------------------------|

B5
|-------------------|
|-------------------|
|-4-----------------|
|-4-----------------|
|-2-----------------|
|-------------------|

Solo Lead
           (For This Part You Need To Tremolo Pick Fast)
|-----------|----------------------------------|
|-----------|----------------------------------|
|-/6V--/6V--|-44464446444644464446444644464446-|
|-----------|----------------------------------|
|-----------|----------------------------------|
|-----------|----------------------------------|

|-------X3------------|-----------|
|---------------------|-----------|
|-6/7-6-4-6--44464446-|-6/7-6V----|
|---------------------|-----------|
|---------------------|-----------|
|---------------------|-----------|

Structure
Intro
Pre Verse x4
Verse x4
Chorus
Pre Verse x4
Verse x4
Chorus
Pre Verse/Solo x8
Verse x4
Chorus
Pre Verse x4
Verse x4
Chorus
Pre Verse x4
B5
            
Hard to play? Try these video lessons and learn fast. | Correct




comments powered by Disqus
↑ Back to top | Tablatures and chords are parodies/interpretations of the original songs. You may use it for private study, scholarship, research or language learning purposes only