» » »

No Survivors Bass tabs (ver.1)

Artists:  A B C D E F G H I J K L M N O P Q R S T U V W X Y Z # 

No Survivors Bass tabs (ver.1)

Gbh
Rating:
0/5 (0 votes)

Hard to play? Try these video lessons and learn fast.
                Intro
G-----------------|
D-----------------|
A--7---7---7---7--|
E-----------------|

Verse/Main riff                Middle Verse
G-----------------------------|-------------------|
D-----------------------------|-------------------|
A--7-7-7-7-7-7-7-7-7-7-7-7--6-|-------------------|
E-----------------------------|--9-9-9-9--7-7-7-7-|


Chorus
G------------------------------------------|
D------------------------------------------|
A--7-7--5--7-----------7-7--5--7-----------|
E-------------7-7-7-7-------------7-7-7-7--|
            
Hard to play? Try these video lessons and learn fast. | Correct




comments powered by Disqus
↑ Back to top | Tablatures and chords are parodies/interpretations of the original songs. You may use it for private study, scholarship, research or language learning purposes only