» » »

Gunned Down Tabs (ver.1)

Artists:  A B C D E F G H I J K L M N O P Q R S T U V W X Y Z # 

Gunned Down Tabs (ver.1)

Gbh
Rating:
5/5 (3 votes)

Hard to play? Try these video lessons and learn fast.
                Band:G.B.H

1st part 6x                                1x
e----------------------------------        ------------|
b----------------------------------        ------------|
g----------------------------------  then  ------------|
d---66-6-66-6-66-9-99-11-1111-99---        ---6-let----|
a---44-4-44-4-44-7-77--9--9-9-77---        ---4-ring---|
e----------------------------------        ------------|
    pp   pp   pp   pp     pp

2nd part 8x             3rd part 3x
e--------------------   --------------------------------|
b--------------------   --------------------------------|
g--------------------   --------------------------------|
d---666-999-1111-9---   -------888-9999-666-888-666-8---|
a---444-777--9-9-7---   ---999-666-7777-444-666-444-6---|
e--------------------   ---777--------------------------|

2nd part 8x
3rd part 3x
2nd part 8x
3rd part 3x

4th part 4x          Solo
e-----------------   ---9999999999-etc--------------------------------------|
b-----------------   ---9999999999------9--9--9-----------9--9--9-----------|
d-----------------   ------------------11-11-11-11----11-11-11-11-11-9------|
g---666-99-11\9---   -------------------^--^--^----11~-----------------11~--|
a---444-77--9\7---   -------------------------------------------------------|
e-----------------   -------------------------------------------------------|
    ppp

2nd part 4x
3rd part 3x
2nd part 8x
3rd part 3x
4th part 4x

Ending Chord   This is one of my favorites the rhythm in the 1st part might
e---------------|       take you a while to get used to but the rest of the song
b---------------|       is easy to play the solo is a sloppy one like most punk
d---------------|       solo's are but play it as band and it
e---------------|
            
Hard to play? Try these video lessons and learn fast. | Correct




comments powered by Disqus
↑ Back to top | Tablatures and chords are parodies/interpretations of the original songs. You may use it for private study, scholarship, research or language learning purposes only