» » »

Generals Tabs (ver.2)

Artists:  A B C D E F G H I J K L M N O P Q R S T U V W X Y Z # 

Generals Tabs (ver.2)

Gbh
Rating:
0/5 (0 votes)

Hard to play? Try these video lessons and learn fast.
                ------------------------------ Guitar Tabs ---------------------------------

 Band: Charged G.B.H    Song: Generals
 
 Album:Leather,Bristles,Studs and Acne.

Intro:
e|---0---|
B|---2---|
G|---2---|1x
D|---2---|
A|---0---|
E|---0---|
     
e|-----0-0-0---0-0-0---0-0-0---3-3-3-------|  
B|-----2-2-2-0-2-2-2-0-1-1-1-0-0-0-0-0-----|
G|-----2-2-2-0-2-2-2-0-0-0-0-0-0-0-0-0-----|4x  
D|-----2-2-2-0-2-2-2-0-2-2-2-0-0-0-0-0-----|
A|-----0-0-0---0-0-0---3-3-3---2-2-2-------|
E|-----0-0-0---0-0-0-----------3-3-3-------|

e|----0----------0----------0----------0---|
B|----2----------2----------2----------2---|
G|----2----------2----------2----------2---|1x
D|----2----------2----------2----------2---|
A|----0----------0----------0----------0---|
E|----0----------0----------0----------0---|

e|----0-0-0-0----0-0-0---3-3-3-------------|
B|----2-2-2-2----1-1-1---0-0-0-------------|
G|----2-2-2-2----0-0-0---0-0-0-------------|8x
D|----2-2-2-2----2-2-2---0-0-0-------------|
A|----0-0-0-0----3-3-3---2-2-2-------------|
E|----0-0-0-0------------3-3-3-------------|

e|----0-------0-------0-------0------------|
B|----0-------0-------0-------0------------|
G|----1-------1-------1-------1------------|1x
D|----2-------2-------2-------2------------|
A|----3-------3-------3-------3------------|
E|----0-0-0-0-0-0-0-0-0-0-0-0-0------------|

e|----0-0-0-0----0-0-0---3-3-3-------------|
B|----2-2-2-2----1-1-1---0-0-0-------------|
G|----2-2-2-2----0-0-0---0-0-0-------------|4x
D|----2-2-2-2----2-2-2---0-0-0-------------|
A|----0-0-0-0----3-3-3---2-2-2-------------|
E|----0-0-0-0------------3-3-3-------------|

e|----0-------0-------0-------0------------|
B|----0-------0-------0-------0------------|
G|----1-------1-------1-------1------------|1x
D|----2-------2-------2-------2------------|
A|----3-------3-------3-------3------------|
E|----0-0-0-0-0-0-0-0-0-0-0-0-0------------|

e|----0-0-0-0----0-0-0---3-3-3-------------|
B|----2-2-2-2----1-1-1---0-0-0-------------|
G|----2-2-2-2----0-0-0---0-0-0-------------|8x
D|----2-2-2-2----2-2-2---0-0-0-------------|
A|----0-0-0-0----3-3-3---2-2-2-------------|
E|----0-0-0-0------------3-3-3-------------|

e|----0----------0----------0----------0---|
B|----2----------2----------2----------2---|
G|----2----------2----------2----------2---|1x
D|----2----------2----------2----------2---|
A|----0----------0----------0----------0---|
E|----0----------0----------0----------0---|

e|----0-0-0-0----0-0-0---3-3-3-------------|
B|----2-2-2-2----1-1-1---0-0-0-------------|
G|----2-2-2-2----0-0-0---0-0-0-------------|4x
D|----2-2-2-2----2-2-2---0-0-0-------------|
A|----0-0-0-0----3-3-3---2-2-2-------------|
E|----0-0-0-0------------3-3-3-------------|

e|----0-------0-------0-------0------------|
B|----0-------0-------0-------0------------|
G|----1-------1-------1-------1------------|1x
D|----2-------2-------2-------2------------|
A|----3-------3-------3-------3------------|
E|----0-0-0-0-0-0-0-0-0-0-0-0-0------------|

e|----0-0-0-0----0-0-0---3-3-3-------------|
B|----2-2-2-2----1-1-1---0-0-0-------------|
G|----2-2-2-2----0-0-0---0-0-0-------------|16x
D|----2-2-2-2----2-2-2---0-0-0-------------|
A|----0-0-0-0----3-3-3---2-2-2-------------|
E|----0-0-0-0------------3-3-3-------------|

e|----0-------0-------0-------0------------|
B|----0-------0-------0-------0------------|
G|----1-------1-------1-------1------------|1x
D|----2-------2-------2-------2------------|
A|----3-------3-------3-------3------------|
E|----0-0-0-0-0-0-0-0-0-0-0-0-0------------|

e|----0-0-0-0----0-0-0---3-3-3-------------|
B|----2-2-2-2----1-1-1---0-0-0-------------|
G|----2-2-2-2----0-0-0---0-0-0-------------|8x
D|----2-2-2-2----2-2-2---0-0-0-------------|
A|----0-0-0-0----3-3-3---2-2-2-------------|
E|----0-0-0-0------------3-3-3-------------|

outro:
e|---0---|
B|---2---|
G|---2---|1x
D|---2---|
A|---0---|
E|---0---|

----------------------------------------------------------------------------

      A   C   G   E
e|----0---0---3---0--------|
B|----2---1---0---0--------|
G|----2---0---0---1--------|
D|----2---2---0---2--------|
A|----0---3---2---3--------|
E|----0-------3---0--------|
Lyric:
We'll lead you into victory, you hear the generals say.
Never look behind you, we're with you all the way.
Go to bed early, conserve your energy,
tomorrow we'll be fighting with our enemy.
Polish your boots, clean your gun,
killing those bastards will be a lot of fun.
Take no prisoners, kill them all.
Start to march when you hear the call.

Britain needs you, Britain needs you ..
Britain needs you to die for her.

Marching into victory, marching in the mud.
Fighting for freedom, fighting in th eblood.
There's dead bodies all around, you're told to carry on.
Death is not right, war cannot be won.

March along you see a flash,
fall to the ground and make a splash.
You awake you're lying in the bed,
eyes are shut you think you're dead.
Lost your arm, you've lost your leg,
lost you're job, you'll have to beg.
You'll get loads of sympathy, a picture in the Evening Post.
But where were the generals when you needed them most ?
-----------------------------------------------------------------
Bass Line:
Verse
G|--------------------------------------------------|
D|--------------------------------------------------|
A|-----------------------8-8-8----------------------|
E|---10-10-8-8-10-10-8-8-------8--8-8-8-------------|
chorus
G|--------------------------------------------------|
D|--------------------------------------------------|
A|--------------------------------------------------|2x
E|---------0-0-0-0-0-0-0-0-0-0-0-0-0-0-0-0----------|

----------------------------------------------------------------------------
            
Hard to play? Try these video lessons and learn fast. | Correct




comments powered by Disqus
↑ Back to top | Tablatures and chords are parodies/interpretations of the original songs. You may use it for private study, scholarship, research or language learning purposes only