» » »

Gbh, Drugs Party In 56 Tabs (ver.1)

Artists:  A B C D E F G H I J K L M N O P Q R S T U V W X Y Z # 

Drugs Party In 56 Tabs (ver.1)

Gbh Tabs
 Rating:
4/5 (4 votes)
Drugs Party In 56 lessons Tabs too difficult? Try these video lessons and learn fast
                (2)
GBH - Drugs Party In 526(live) (2004-Cruel&Unusual)
This is my favourite song by GBH! It's probably not 100% correct but it's how i play it.

intro:
e|-------------|
B|-------------|
G|-9-9-9-10-9--|
D|-9-9-9-10-9--|
A|-7-7-7--8-7--|
E|-------------|

PM X X X
e|----------------|
B|----------------|
G|-9-9-9-9-9-10-9-|
D|-9-9-9-9-9-10-9-|
A|-7-7-7-7-7--8-7-|
E|----------------| x7

rest:
e|---------------------------|
B|---------------------------|
G|-9-9-10-9-9-9\-7-7-7-9-9-9-|
D|-9-9-10-9-9-9\-7-7-7-9-9-9-|
A|-7-7--8-7-7-7\-5-5-5-7-7-7-|
E|---------------------------| x8

e|--------------|
B|--------------|
G|--------------|
D|-9/10\9-7-7-7-|
A|-9/10\9-7-7-7-|
E|-7/-8\7-5-5-5-| x4

e|---------------------------|
B|---------------------------|
G|-9-9-10-9-9-9\-7-7-7-9-9-9-|
D|-9-9-10-9-9-9\-7-7-7-9-9-9-|
A|-7-7--8-7-7-7\-5-5-5-7-7-7-|
E|---------------------------| x6

e|--------------|
B|--------------|
G|--------------|
D|-9/10\9-7-7-7-|
A|-9/10\9-7-7-7-|
E|-7/-8\7-5-5-5-| x4

solo1: (tremelo picking) listen to the song to get the rhythm!
e|-------------------------------------------------------------|
B|-------------------------------------------------------------|
G|---------------------------------12-13-----------------------|
D|-9--10--9-10-9-12-13-15-12-13-15-------15-13-12-10-9---------|
A|-----------------------------------------------------12-10-9-|
E|-------------------------------------------------------------|

e|---------------------------|
B|---------------------------|
G|-9-9-10-9-9-9\-7-7-7-9-9-9-|
D|-9-9-10-9-9-9\-7-7-7-9-9-9-|
A|-7-7--8-7-7-7\-5-5-5-7-7-7-|
E|---------------------------| x6

e|--------------|
B|--------------|
G|--------------|
D|-9/10\9-7-7-7-|
A|-9/10\9-7-7-7-|
E|-7/-8\7-5-5-5-| x4

solo2: (tremelo picking) similar to solo1, but not the same!!!
e|--------------------------------------------------------|
B|--------------------------------------------------------|
G|----------------------------12-13-----------------------|
D|-9----10----9-10-9-12-13-15-------15-13-12-10-9---------|
A|------------------------------------------------12-10-9-|
E|--------------------------------------------------------|

e|---------------------------|
B|---------------------------|
G|-9-9-10-9-9-9\-7-7-7-9-9-9-|
D|-9-9-10-9-9-9\-7-7-7-9-9-9-|
A|-7-7--8-7-7-7\-5-5-5-7-7-7-|
E|---------------------------| x4

e|--------------|
B|--------------|
G|--------------|
D|-9/10\9-7-7-7-|
A|-9/10\9-7-7-7-|
E|-7/-8\7-5-5-5-| x4

outro:
e|-------------------------------------------------------|
B|-----------------------11b12---------------------------|
G|-9--9-9-9--9-9-9-10-9---------9--9-9-9--9-9-9-10-9-----|
D|-9--9-9-9--9-9-9-10-9---------9--9-9-9--9-9-9-10-9-----|
A|-7--7-7-7--7-7-7--8-7---------7--7-7-7--7-7-7--8-7-----|
E|---------------------------------------------------7~~-| x2

e|-----------------------------------------------------------|
B|-----------------------------------------------------------|
G|-9--10-9--10-9-10-9--10-9--10-9-10-9--10-9--10-9-10-12--10-|
D|-9--10-9--10-9-10-9--10-9--10-9-10-9--10-9--10-9-10-12--10-|
A|-7---8-7---8-7--8-7---8-7---8-7--8-7---8-7---8-7--8-10---8-|
E|-----------------------------------------------------------|

e|-------------------------------------(let ring last chord to fade-out)----|
B|--------------------------------------------------------------------------|
G|-9--10-9--10-9-10-9--10-9--10-9-10-9--10-9--10-9-10--10--10--10--10--10---|
D|-9--10-9--10-9-10-9--10-9--10-9-10-9--10-9--10-9-10--10--10--10--10--10---|
A|-7---8-7---8-7--8-7---8-7---8-7--8-7---8-7---8-7--8---8---8---8---8---8---|
E|--------------------------------------------------------------------------|

Drugs Party In 526(live)

Dog tired sleeping on the train
A couple of hours and we'll be home again
But a big man dressed in blue said
"Hey you lot, we want you"

We had a drugs party in 526

The flick knives were all they found
Ross had lots of fun bending down
Stranded in the smoke, get out of that
Wilf he's safe at home stroking his cat

Drugs party in 526

Lumpyjack's fault he wrote the note
Got drunk on the duty free we got on the boat
Living in a cell really void of time
Offensive weapon be in court by nine

We had a drugs party in 526

Standing in a cloud of carbon monoxide
No need to run but a need to hide
The zap was the loudest thing I've ever heard
We're just trying to sleep and growing a beard

Drugs party in 526
We had a drugs party
Drugs party
Drugs party in 526
            
Submit corrections

comments powered by Disqus
↑ Back to top | Gbh Tabs for Drugs Party In 56. Lyrics for acoustic guitar and electric guitar. Tablatures and chords are parodies/interpretations of the original songs. You may use it for private study, scholarship, research or language learning purposes only