>
 >
Toguro

Toguro Guitar Tabs

Gazette - Toguro chords, tabs, tablatures, lyrics

Guitar lessons | Add/correct | Request | Top 50 tabs Artists:  A B C D E F G H I J K L M N O P Q R S T U V W X Y Z 0-9

Toguro Guitar Tabs – Gazette

CD, Sheet music, Poster

Do you like Toguro? Share with your friends now
Tabs
the GazettE - Toguro

Tuning: Drop B
Uruha - right channel

Intro
C#|--------------------------------------------------------------------|
G#|--------------------------------------------------------------------|
E |--------------------------------2*----------------------------------|
B |-----------------------------------------------------------------2*-|
F#|-00-2-2-00-2-00-3-00-2-2-00-2-0---00-2-2-00-2-00-3-00-2-2-00-0-2----|
B |-00-2-2-00-2-00-3-00-2-2-00-2-0---00-2-2-00-2-00-3-00-2-2-00-0-2----|
    ..     ..   ..   ..     ..   .   ..     ..   ..   ..     .. .

C#|--------------------------------------------------------------------|
G#|--------------------------------------------------------------------|
E |--------------------------------2*----------------------------------|
B |--------------------------------------------------------------------|
F#|-00-2-2-00-2-00-3-00-2-2-00-2-0---00-2-2-00-2-00-3-00-2-2-00-3-3--5-|
B |-00-2-2-00-2-00-3-00-2-2-00-2-0---00-2-2-00-2-00-3-00-2-2-00-3-3--5-|
    ..     ..   ..   ..     ..   .   ..     ..   ..   ..     ..


Verse
C#|-----------------------------------------------------------------|
G#|-----------------------------------------------------------------|
E |-----------------------------------------------------------------|
B |-----------------------------------------------------------------|
F#|-22-2-3-22---0-3-22--2-3-22--0-3--22-2-3-22--0-3-22-2-3-22---/x\-|
B |-22-2-3-22---0-3-22--2-3-22--0-3--22-2-3-22--0-3-22-2-3-22---/x\-|
    .. . . ..   . . ..  . . ..  . . 

C#|--------------------------------------------------------------------|
G#|--------------------------------------------------------------------|
E |--------------------------------2*----------------------------------|
B |-----------------------------------------------------------------2*-|
F#|-00-2-2-00-2-00-3-00-2-2-00-2-0---00-2-2-00-2-00-3-00-2-2-00-0-2----|
B |-00-2-2-00-2-00-3-00-2-2-00-2-0---00-2-2-00-2-00-3-00-2-2-00-0-2----|
    ..     ..   ..   ..     ..   .   ..     ..   ..   ..     .. .

C#|--------------------------------------------------------------------|
G#|--------------------------------------------------------------------|
E |--------------------------------2*----------------------------------|
B |--------------------------------------------------------------------|
F#|-00-2-2-00-2-00-3-00-2-2-00-2-0---00-2-2-00-2-00-3-00-2-2-00-3-3--5-|
B |-00-2-2-00-2-00-3-00-2-2-00-2-0---00-2-2-00-2-00-3-00-2-2-00-3-3--5-|
    ..     ..   ..   ..     ..   .   ..     ..   ..   ..     ..



C#|------------------------------------------------------------------|
G#|------------------------------------------------------------------|
E |------------------------------------------------------------------|
B |------------------------------------------------------------------|
F#|-22-2-3-22---0-3-22--2-3-22--0-3--22-2-3-22--0-3-22-2-3-22--222-3-|
B |-22-2-3-22---0-3-22--2-3-22--0-3--22-2-3-22--0-3-22-2-3-22--222-3-|
    .. . . ..   . . ..  . . ..  . .                            ...


Pre-chorus
C#|-------------------------------------------------------------------|
G#|-------------------------------------------------------------------|
E |-------------------------------------------------------------------|
B |-------------------------------------------------------------------|
F#|-2-2-2-2-2-2-2-2-2-2-2-2--99--55--2-2-2-2-2-2-2-2-2-2-2-0--4-5-4-0-|
B |-2-2-2-2-2-2-2-2-2-2-2-2--99--55--2-2-2-2-2-2-2-2-2-2-2-0--4-5-4-0-|

C#|-------------------------------------------------------------------|
G#|-------------------------------------------------------------------|
E |---------------------------------------------------------5-4-------|
B |---------------------------------------------------------5-4-5\3-2-|
F#|-2-2-2-2-2-2-2-2-2-2-2-2--99--55--2-2-2-2-2-2-2-2-2-2-2--3-2-5\3-2-|
B |-2-2-2-2-2-2-2-2-2-2-2-2--99--55--2-2-2-2-2-2-2-2-2-2-2------5\3-2-|



Chorus - clean                                         
C#|------------------------------------------|     
G#|----5---------5----------5------------5---|     
E |------4---------4----------4--------4---4-|(4x) 
B |----------------------4-----------6-------|     
F#|-----------0--------2----------4----------|     
B |-4----------------------------------------|     



1:55-2:10
I don't really know what he's doing here, tremolo work maybe? I have no trem bar so...


                                      Delay
C#|----------------------------------------| 
G#|-------------------------------------17-|
E |-------------------------------------16-|
B |----------------------------------------|
F#|-22-2-3-22---0-3-22--2-3-22--0-3--------|
B |-22-2-3-22---0-3-22--2-3-22--0-3--------|
    .. . . ..   . . ..  . . ..  . .  


Delay off
C#|-------------------------------------------------------------------|
G#|-------------------------------------------------------------------|
E |-------------------------------------------------------------------|
B |-------------------------------------------------------------------|
F#|-2-2-2-2-2-2-2-2-2-2-2-2--99--55--2-2-2-2-2-2-2-2-2-2-2-0--4-5-4-0-|
B |-2-2-2-2-2-2-2-2-2-2-2-2--99--55--2-2-2-2-2-2-2-2-2-2-2-0--4-5-4-0-|

C#|-------------------------------------------------------------------|
G#|-------------------------------------------------------------------|
E |---------------------------------------------------------5-4-------|(2x)
B |---------------------------------------------------------5-4-5\3-2-|
F#|-2-2-2-2-2-2-2-2-2-2-2-2--99--55--2-2-2-2-2-2-2-2-2-2-2--3-2-5\3-2-|
B |-2-2-2-2-2-2-2-2-2-2-2-2--99--55--2-2-2-2-2-2-2-2-2-2-2------5\3-2-|



Interlude ("eleven"s not "one"s)
C#|-----------------------------|
G#|-----------------------------|
E |-----------------------------|
B |-4--7--9--11--2--4--7--9--11-|
F#|-4--7--9--11--2--4--7--9--11-|
B |-4--7--9--11--2--4--7--9--11-|


Final Chorus                                         
C#|------------------------------------------|     
G#|----5---------5----------5------------5---|     
E |------4---------4----------4--------4---4-|To end 
B |----------------------4-----------6-------|     
F#|-----------0--------2----------4----------|     
B |-4----------------------------------------|     






Aoi - left channel
Intro
C#|-----------------------------------------------------------------------|
G#|-----------------------------------------------------------------------|
E |--------------------------------2*-------------------------------------|
B |-----------------------------------------------------------------------|
F#|-00-2-2-00-2h3-0-3-00-2-2-00-2h3---00-2-2-00-2h3-0-3-00-2-2-00-0h2-0-3-|
B |-00-2-2-00-2h3-0-3-00-2-2-00-2h3---00-2-2-00-2h3-0-3-00-2-2-00-0h2-0-3-|
    ..     ..     .   ..     ..   .   ..     ..     .   ..     .. .   .

C#|--------------------------------------------------------------------|
G#|--------------------------------------------------------------------|
E |--------------------------------2*----------------------------------|
B |--------------------------------------------------------------------|
F#|-00-2-2-00-2-00-3-00-2-2-00-2-0---00-2-2-00-2-00-3-00-2-2-00-3-3--5-|
B |-00-2-2-00-2-00-3-00-2-2-00-2-0---00-2-2-00-2-00-3-00-2-2-00-3-3--5-|
    ..     ..   ..   ..     ..   .   ..     ..   ..   ..     ..


Verse                                                          Pick slid
C#|-----------------------------------------------------------------|
G#|-----------------------------------------------------------------|
E |-----------------------------------------------------------------|
B |-----------------------------------------------------------------|
F#|-22-2-3-22---0-3-22--2-3-22--0-3--22-2-3-22--0-3-22-2-3-22---/x\-|
B |-22-2-3-22---0-3-22--2-3-22--0-3--22-2-3-22--0-3-22-2-3-22---/x\-|
    .. . . ..   . . ..  . . ..  . . 

C#|-----------------------------------------------------------------------|
G#|-----------------------------------------------------------------------|
E |--------------------------------2*-------------------------------------|
B |-----------------------------------------------------------------------|
F#|-00-2-2-00-2h3-0-3-00-2-2-00-2h3---00-2-2-00-2h3-0-3-00-2-2-00-0h2-0-3-|
B |-00-2-2-00-2h3-0-3-00-2-2-00-2h3---00-2-2-00-2h3-0-3-00-2-2-00-0h2-0-3-|
    ..     ..     .   ..     ..   .   ..     ..     .   ..     .. .   .

C#|--------------------------------------------------------------------|
G#|--------------------------------------------------------------------|
E |--------------------------------2*----------------------------------|
B |--------------------------------------------------------------------|
F#|-00-2-2-00-2-00-3-00-2-2-00-2-0---00-2-2-00-2-00-3-00-2-2-00-3-3--5-|
B |-00-2-2-00-2-00-3-00-2-2-00-2-0---00-2-2-00-2-00-3-00-2-2-00-3-3--5-|
    ..     ..   ..   ..     ..   .   ..     ..   ..   ..     ..

C#|------------------------------------------------------------------|
G#|------------------------------------------------------------------|
E |------------------------------------------------------------------|
B |------------------------------------------------------------------|
F#|-22-2-3-22---0-3-22--2-3-22--0-3--22-2-3-22--0-3-22-2-3-22--222-3-|
B |-22-2-3-22---0-3-22--2-3-22--0-3--22-2-3-22--0-3-22-2-3-22--222-3-|
    .. . . ..   . . ..  . . ..  . .                            ...



Pre-chorus - clean
C#|----7----------8-----------------7-------8--7----|
G#|-10------10---------10-------10-------10------10-|
E |------10----10---10----10----------10------------|
B |-------------------------------------------------|
F#|-------------------------------------------------|
B |-------------------------------------------------|
  
                                           Dist.
C#|----7----------8-----------------7-----------------|
G#|-10------10---------10-------10--------------------|
E |------10----10---10----10---------------5-4--------|
B |----------------------------------------5-4--5\3-2-|
F#|----------------------------------------3-2--5\3-2-|
B |---------------------------------------------5\3-2-|


Chorus                        Chorus Overdub part    2nd time
C#|--------------------|     |-17-16--------------| |-17-16-----19-16-|
G#|--------------------|     |-------17--12--14---| |-------17--------|
E |---------4--6-------|(4x) |--------------------| |-----------------|
B |-4---7---4--6---2-3-|     |--------------------| |-----------------|
F#|-4---7---2--4---2-3-|     |--------------------| |-----------------|
B |-4---7----------2-3-|     |--------------------| |-----------------|


C#|-----------------------------------------|
G#|-----------------------------------------|
E |-----------------------------------------|
B |-----------------------------------------|
F#|-2-2-2-2-2-3-2-2-2-/x\-2-2-2-2-2-3-2-2-2-|
B |-2-2-2-2-2-3-2-2-2-/x\-2-2-2-2-2-3-2-2-2-|
    . . . . . . . . .     . . . . . . . . .

C#|-----------------------------------------------------------------|
G#|-----------------------------------------------------------------|
E |-----------------------------------------------------------------|
B |-----------------------------------------------------------------|
F#|-22-2-3-22---0-3-22--2-3-22--0-3--22-2-3-22--0-3-22-2-3-22---/x\-|
B |-22-2-3-22---0-3-22--2-3-22--0-3--22-2-3-22--0-3-22-2-3-22---/x\-|

C#|------------------------------------------------------------------|
G#|------------------------------------------------------------------|
E |------------------------------------------------------------------|
B |------------------------------------------------------------------|
F#|-22-2-3-22---0-3-22--2-3-22--0-3--22-2-3-22--0-3-22-2-3-22--222-3-|
B |-22-2-3-22---0-3-22--2-3-22--0-3--22-2-3-22--0-3-22-2-3-22--222-3-|
    .. . . ..   . . ..  . . ..  . .                            ...


Pre-chorus - clean
C#|----7----------8-----------------7-------8--7----|     |------------|
G#|-10------10---------10-------10-------10------10-|     |------------|
E |------10----10---10----10----------10------------|(4x) |-5-4--------|
B |-------------------------------------------------|     |-5-4--5\3-2-|
F#|-------------------------------------------------|     |-3-2--5\3-2-|
B |-------------------------------------------------|     |------5\3-2-|


Acoustic Interlude - Haven't figured it out yet


Chorus                            Chorus Overdub part    2nd time
C#|--------------------|        |-17-16--------------| |-17-16-----19-16-|
G#|--------------------|        |-------17--12--14---| |-------17--------|
E |---------4--6-------|To end  |--------------------| |-----------------|
B |-4---7---4--6---2-3-|        |--------------------| |-----------------|
F#|-4---7---2--4---2-3-|        |--------------------| |-----------------|
B |-4---7----------2-3-|        |--------------------| |-----------------|





Comments


Popular Gazette tabs & chords
Juuyon Sai No Knife Bass Tabs
Nakigahara Bass Tabs
Cassis Intro Tabs
Gentle Lie Live Intro Tabs
Guren Tabs
Hanakotoba Tabs
Naraku Tabs
Reila Tabs
Shunsetsu No Koro Tabs
Taion Tabs


Song lyrics



↑ Back to top | Tablatures and chords are parodies/interpretations of the original songs. You may use it for private study, scholarship, research or language learning purposes only
© 2014 AZChords.com Contact us | Privacy policy | DMCA | Add/correct tabs | Request tabs | Top 50 tabs